Song name
# A B C D E F G H I J K L M N O P Q R S T U V W X Y Z

30 Seconds To Mars - The Race tab

Hello guys, it's intro to great song The Race. Play it very fast
enjoy...

E|-------------------------------------------------|
B|-------------------------------------------------|
G|-------------------------------------------------|
D|--19-17-----17-----------------------------------|    x3
A|-------20-19--20-19-17-20-19-17--19-17-----------|
E|-------------------------------20-----20-19------|

E|-------------------------------------------------|
B|-------------------------------------------------|
G|-------------------------------------------------|
D|--------------------------------17-----17-19-----| 
A|----------17---17-19-20-17-19-20--19-20----------|
E|--17-19-20---20----------------------------------|

repeat
Tap to rate this tab
# A B C D E F G H I J K L M N O P Q R S T U V W X Y Z