Song name
# A B C D E F G H I J K L M N O P Q R S T U V W X Y Z

311 - Dont Let Me Down tab

-------------------------------------------------------------------------------
			     DON'T LET ME DOWN - 3-11
-------------------------------------------------------------------------------
Tabbed by:CHONG DAN
Email:c_drumz@yahoo.com

Tuning: E A D G B E

      h - hammer on
      p - pull off
      b - bend string up
      r - release bend
      / - slide up
      \ - slide down
      v - vibrato (sometimes written as ~)
      t - right hand tap
      x - play 'note' with heavy damping

INTRO
e|-------------------:---------------------------------|
B|-------------------:---------------------------------|
G|-------------------:REPEAT-X-4-----------------------|
D|-------------------:---------------------------------|
A|5--5-3---5--3--7---:-------------8-8-8-8-8-8-8-8-7\--|
E|3------5-3--1--5---:-------------6-6-6-6-6-6-6-6-5\--|

VERSE
e|-----------------------------------|
B|-----------------------------------|
G|-----------------------------------|
D|--------------------------3-3------|
A|5p3-5-3--5p3-5-3--5p3-5-3-----3-5--|
E|-----------------------------------|

CHORUS
e|------------------------------------------|
B|------------------------------------------|
G|------------------------------------------|
D|------------------------------------------|
A|/7-5-3------------/7-5-3------------------|
E|-------5-3-2v------------5-3-2--2--2-2-2--|

OUTRO
e|-------------------------:---------------------|
B|-------------------------:---------------------|
G|-------------------------:----REPEAT-X---------|
D|-------------------------:-----------------7\--|
A|4--4-4-4--4-4-4--4-4-4---:-----------------5\--|
E|2--2-2-2--2-2-2--2-2-2---:---------------------|

NOTE: LISTEN TO TRACK FOR RHYTHMS   ENJOY!  THIS IS MY FIRST TAB.....


===============================================================================
Tap to rate this tab
# A B C D E F G H I J K L M N O P Q R S T U V W X Y Z