Guitaretab - guitar tabs
Song name
# A B C D E F G H I J K L M N O P Q R S T U V W X Y Z
Home / 3 / 311 / Down tab

311 - Down tab

#----------------------------------PLEASE NOTE---------------------------------#
#This file is the author's own work and represents their interpretation of the #
#song. You may only use this file for private study, scholarship, or research. #
#------------------------------------------------------------------------------##

                                      DOWN
                               As recorded by 311
                            (From the 1995 Album 311)

Words by Nick Hexum, Doug (SA) Martinez

Music by Nick Hexum


Gtr I (E A D G B E) - 'miT'
Gtr II (E A D G B E) - 'nick'

 Intro
  Q=88
  G5A5        G5    F#5       G5    G5A5        G5    F#5       G5
 4/4
  Gtr I
  S S S S S S S S S S S S S S S S   S S S S S S S S S S S S S S S S
|---------------------------------|---------------------------------|
|---------------------------------|---------------------------------|
|---------------------------------|---------------------------------|
|-5-7-7-7-7---5-5-x-4-4---x-4-5---|-5-7-x-7-7---5-5---4-4---x-4-5---|
|-5-7-7-7-7---5-5-x-4-4---x-4-5---|-5-7-x-7-7---5-5---4-4---x-4-5---|
|-3-5-5-5-5---3-3-x-2-2---x-2-3---|-3-5-x-5-5---3-3---2-2---x-2-3---|


 Verse
  $
  G5A5        G5    F#5       G5    G5A5        G5    F#5       G5
  Gtrs I, II
  S S S S S S S S S S S S S S S S   S S S S S S S S S S S S S S S S
|---------------------------------|---------------------------------|
|---------------------------------|---------------------------------|
|---------------------------------|---------------------------------|
|-5-7-7-7-7---5-5-x-4-4---x-4-5---|-5-7-x-7-7---5-5---4-4---x-4-5---|
|-5-7-7-7-7---5-5-x-4-4---x-4-5---|-5-7-x-7-7---5-5---4-4---x-4-5---|
|-3-5-5-5-5---3-3-x-2-2---x-2-3---|-3-5-x-5-5---3-3---2-2---x-2-3---|


  G5A5        G5    F#5       G5    G5A5        G5    F#5 G5  F#5
  S S S S S S S S S S S S S S S S   S S S S S S S S S S S S S S S S
|---------------------------------|---------------------------------|
|---------------------------------|---------------------------------|
|---------------------------------|---------------------------------|
|-5-7-7-7-7---5-5-x-4-4---x-4-5---|-5-7-x-7-7---5-5---4---5---4-----|
|-5-7-7-7-7---5-5-x-4-4---x-4-5---|-5-7-x-7-7---5-5---4---5---4-----|
|-3-5-5-5-5---3-3-x-2-2---x-2-3---|-3-5-x-5-5---3-3---2---3---2---0-|


  G5A5        G5    F#5       G5    G5A5        G5    F#5       G5
  S S S S S S S S S S S S S S S S   S S S S S S S S S S S S S S S S
|---------------------------------|---------------------------------|
|---------------------------------|---------------------------------|
|---------------------------------|---------------------------------|
|-5-7-7-7-7---5-5-x-4-4---x-4-5---|-5-7-x-7-7---5-5---4-4---x-4-5---|
|-5-7-7-7-7---5-5-x-4-4---x-4-5---|-5-7-x-7-7---5-5---4-4---x-4-5---|
|-3-5-5-5-5---3-3-x-2-2---x-2-3---|-3-5-x-5-5---3-3---2-2---x-2-3---|


  G5A5        G5    F#5       G5    G5A5        G5    F#5 G5  F#5
  S S S S S S S S S S S S S S S S   S S S S S S S S S S S S S S S S
|---------------------------------|---------------------------------|
|---------------------------------|---------------------------------|
|---------------------------------|---------------------------------|
|-5-7-7-7-7---5-5-x-4-4---x-4-5---|-5-7-x-7-7---5-5---4---5---4-----|
|-5-7-7-7-7---5-5-x-4-4---x-4-5---|-5-7-x-7-7---5-5---4---5---4-----|
|-3-5-5-5-5---3-3-x-2-2---x-2-3---|-3-5-x-5-5---3-3---2---3---2---0-|


 Chorus
                                                       To Coda
  E5              G#5   F#5 G#5   E5              G#5   F#5 G#5
  S S S S S S S S S S S E S S S   S S S S S S S S S S S E S S S
|-------------------------------|-------------------------------|
|-------------------------------|-------------------------------|
|-------------------------------|-------------------------------|
|-2-2-2-2---2---2-6-6-6-4-4-6---|-2-2-2-2---2---2-6-6-6-4-4-6---|
|-2-2-2-2---2---2-6-6-6-4-4-6---|-2-2-2-2---2---2-6-6-6-4-4-6---|
|-0-0-0-0---0---0-4-4-4-2-2-4-0-|-0-0-0-0---0---0-4-4-4-2-2-4-0-|


  E5              G#5   F#5 G#5   E5              G#G#5 F#5 G#5
  S S S S S S S S S S S E S S S   S S S S S S S S S S S E S S S
|-------------------------------|-------------------------------|
|-------------------------------|-------------------------------|
|-------------------------------|-------------------------------|
|-2-2-2-2---2---2-6-6-6-4-4-6---|-2-2-2-2---2---2-6-6-6-4-4-6---|
|-2-2-2-2---2---2-6-6-6-4-4-6---|-2-2-2-2---2---2-6-6-6-4-4-6---|
|-0-0-0-0---0---0-4-4-4-2-2-4-0-|-0-0-0-0---0---0-4-4-4-2-2-4-0-|


 Verse
  G5A5        G5    F#5       G5    G5A5        G5    F#5       G5
  S S S S S S S S S S S S S S S S   S S S S S S S S S S S S S S S S
|---------------------------------|---------------------------------|
|---------------------------------|---------------------------------|
|---------------------------------|---------------------------------|
|-5-7-7-7-7---5-5-x-4-4---x-4-5---|-5-7-x-7-7---5-5---4-4---x-4-5---|
|-5-7-7-7-7---5-5-x-4-4---x-4-5---|-5-7-x-7-7---5-5---4-4---x-4-5---|
|-3-5-5-5-5---3-3-x-2-2---x-2-3---|-3-5-x-5-5---3-3---2-2---x-2-3---|


  G5A5        G5    F#5       G5    G5A5        G5    F#5 G5  F#5
  S S S S S S S S S S S S S S S S   S S S S S S S S S S S S S S S S
|---------------------------------|---------------------------------|
|---------------------------------|---------------------------------|
|---------------------------------|---------------------------------|
|-5-7-7-7-7---5-5-x-4-4---x-4-5---|-5-7-x-7-7---5-5---4---5---4-----|
|-5-7-7-7-7---5-5-x-4-4---x-4-5---|-5-7-x-7-7---5-5---4---5---4-----|
|-3-5-5-5-5---3-3-x-2-2---x-2-3---|-3-5-x-5-5---3-3---2---3---2---0-|


 Chorus
  E5              G#5   F#5 G#5   E5              G#5   F#5 G#5
  S S S S S S S S S S S E S S S   S S S S S S S S S S S E S S S
|-------------------------------|-------------------------------|
|-------------------------------|-------------------------------|
|-------------------------------|-------------------------------|
|-2-2-2-2---2---2-6-6-6-4-4-6---|-2-2-2-2---2---2-6-6-6-4-4-6---|
|-2-2-2-2---2---2-6-6-6-4-4-6---|-2-2-2-2---2---2-6-6-6-4-4-6---|
|-0-0-0-0---0---0-4-4-4-2-2-4-0-|-0-0-0-0---0---0-4-4-4-2-2-4-0-|


  E5              G#5   F#5 G#5   E5              G#5   F#5 G#5
  S S S S S S S S S S S E S S S   S S S S S S S S S S S E S S S
|-------------------------------|-------------------------------|
|-------------------------------|-------------------------------|
|-------------------------------|-------------------------------|
|-2-2-2-2---2---2-6-6-6-4-4-6---|-2-2-2-2---2---2-6-6-6-4-4-6---|
|-2-2-2-2---2---2-6-6-6-4-4-6---|-2-2-2-2---2---2-6-6-6-4-4-6---|
|-0-0-0-0---0---0-4-4-4-2-2-4-0-|-0-0-0-0---0---0-4-4-4-2-2-4-0-|


 Interlude
  F#5   E5        F#G5G#E5          F#5   E5        F#G5G#E5
  S S S S S S S S S S S S S S S S   S S S S S S S S S S S S S S S S
|---------------------------------|---------------------------------|
|---------------------------------|---------------------------------|
|---------------------------------|---------------------------------|
|-4-4-4-2-x-x-x-x-4-5-6-2-x-x-x-x-|-4-4-4-2-x-x-x-x-4-5-6-2-x-x-x-x-|
|-4-4-4-2-x-x-x-x-4-5-6-2-x-x-x-x-|-4-4-4-2-x-x-x-x-4-5-6-2-x-x-x-x-|
|-2-2-2-0-x-x-x-x-2-3-4-0-x-x-x-x-|-2-2-2-0-x-x-x-x-2-3-4-0-x-x-x-x-|


  F#5   E5        F#G5G#E5          F#5   E5        F#G5G#E5  E5
  S S S S S S S S S S S S S S S S   S S S S S S S S S S S S S S S S
|---------------------------------|---------------------------------|
|---------------------------------|---------------------------------|
|---------------------------------|---------------------------------|
|-4-4-4-2-x-x-x-x-4-5-6-2-x-x-x-x-|-4-4-4-2-x-x-x-x-4-5-6-2---2-2-2-|
|-4-4-4-2-x-x-x-x-4-5-6-2-x-x-x-x-|-4-4-4-2-x-x-x-x-4-5-6-2---2-2-2-|
|-2-2-2-0-x-x-x-x-2-3-4-0-x-x-x-x-|-2-2-2-0-x-x-x-x-2-3-4-0---0-0-0-|

[ Tab from: http://www.guitaretab.com/numeric/311/37.html ]
    E5                    F#G5G#E5                            G5G#E5
  S S S S S S S S S S S S S S S S   S S S S S S S S S S S S S S S S
|---------------------------------|---------------------------------|
|---------------------------------|---------------------------------|
|---------------------------------|---------------------------------|
|---2---2-2-2---2---2---2-4-5-6-2-|---2-2---2-2---2---2---2-4-5-6-2-|
|---2---2-2-2---2---2---2-4-5-6-2-|---2-2---2-2---2---2---2-4-5-6-2-|
|---0---0-0-0---0---0---0-2-3-4-0-|---0-0---0-0---0---0---0-2-3-4-0-|


                                               D.S. al Coda
    E5                    F#G5G#E5
  S S S S S S S S S S S S S S S S   S S S S S S S S S Q  E S
|---------------------------------|--------------------------|
|---------------------------------|--------------------------|
|---------------------------------|--------------------------|
|---2-2---2-2---2---2---2-4-5-6-2-|---2-2---2-2---2-2--------|
|---2-2---2-2---2---2---2-4-5-6-2-|---2-2---2-2---2-2--------|
|---0-0---0-0---0---0---0-2-3-4-0-|---0-0---0-0---0-0--------|


 Chorus
  &
  E5                G#5 F#5 G#5   E5              G#5
  S S S S S S S S S S S E S S S   S S S S S S S S S S E Q
|-------------------------------|---------------------------|
|-------------------------------|---------------------------|
|-------------------------------|---------------------------|
|-2-2-2-2---2---2-6-6-6-4-4-6---|-2-2-2-2---2---2-6---------|
|-2-2-2-2---2---2-6-6-6-4-4-6---|-2-2-2-2---2---2-6---------|
|-0-0-0-0---0---0-4-4-4-2-2-4-0-|-0-0-0-0---0---0-4---------|


 Bridge
  E5              G#5   F#5   G#5   E5              G#5   F#5   G#5
  S S S S S S S S S S S S S S S S   S S S S S S S S S S S S S S S S
|---------------------------------|---------------------------------|
|---------------------------------|---------------------------------|
|---------------------------------|---------------------------------|
|---------------------------------|---------------------------------|
|-2-2-2-2---2---2-6-6-6-4-4-4-6---|-2-2-2-2---2---2-6-6-6-4-4-4-6---|
|-0-0-0-0---0---0-4-4-4-2-2-2-4-0-|-0-0-0-0---0---0-4-4-4-2-2-2-4-0-|


  E5              G#5   F#5   G#5   E5              G#5   F#5   G#5
  S S S S S S S S S S S S S S S S   S S S S S S S S S S S S S S S S
|---------------------------------|---------------------------------|
|---------------------------------|---------------------------------|
|---------------------------------|---------------------------------|
|---------------------------------|---------------------------------|
|-2-2-2-2---2---2-6-6-6-4-4-4-6---|-2-2-2-2---2---2-6-6-6-4-4-4-6---|
|-0-0-0-0---0---0-4-4-4-2-2-2-4-0-|-0-0-0-0---0---0-4-4-4-2-2-2-4-0-|


 Chorus
  E5              G#5   F#5 G#5   E5              G#5   F#5 G#5
  S S S S S S S S S S S E S S S   S S S S S S S S S S S E S S S
|-------------------------------|-------------------------------|
|-------------------------------|-------------------------------|
|-------------------------------|-------------------------------|
|-2-2-2-2---2---2-6-6-6-4-4-6---|-2-2-2-2---2---2-6-6-6-4-4-6---|
|-2-2-2-2---2---2-6-6-6-4-4-6---|-2-2-2-2---2---2-6-6-6-4-4-6---|
|-0-0-0-0---0---0-4-4-4-2-2-4-0-|-0-0-0-0---0---0-4-4-4-2-2-4-0-|


  E5              G#5   F#5 G#5   E5              G#5   F#5 G#5
  S S S S S S S S S S S E S S S   S S S S S S S S S S S E S S S
|-------------------------------|-------------------------------|
|-------------------------------|-------------------------------|
|-------------------------------|-------------------------------|
|-2-2-2-2---2---2-6-6-6-4-4-6---|-2-2-2-2---2---2-6-6-6-4-4-6---|
|-2-2-2-2---2---2-6-6-6-4-4-6---|-2-2-2-2---2---2-6-6-6-4-4-6---|
|-0-0-0-0---0---0-4-4-4-2-2-4-0-|-0-0-0-0---0---0-4-4-4-2-2-4-0-|


 Interlude
  F#5   E5        F#G5G#E5          F#5   E5        F#G5G#E5
  S S S S S S S S S S S S S S S S   S S S S S S S S S S S S S S S S
|---------------------------------|---------------------------------|
|---------------------------------|---------------------------------|
|---------------------------------|---------------------------------|
|-4-4-4-2-x-x-x-x-4-5-6-2-x-x-x-x-|-4-4-4-2-x-x-x-x-4-5-6-2-x-x-x-x-|
|-4-4-4-2-x-x-x-x-4-5-6-2-x-x-x-x-|-4-4-4-2-x-x-x-x-4-5-6-2-x-x-x-x-|
|-2-2-2-0-x-x-x-x-2-3-4-0-x-x-x-x-|-2-2-2-0-x-x-x-x-2-3-4-0-x-x-x-x-|


  F#5   E5        F#G5G#E5          F#5   E5        F#G5G#E5
  S S S S S S S S S S S S S S S S   S S S S S S S S S S S S S S S S
|---------------------------------|---------------------------------|
|---------------------------------|---------------------------------|
|---------------------------------|---------------------------------|
|-4-4-4-2-x-x-x-x-4-5-6-2-x-x-x-x-|-4-4-4-2-x-x-x-x-4-5-6-2-x-x-x-x-|
|-4-4-4-2-x-x-x-x-4-5-6-2-x-x-x-x-|-4-4-4-2-x-x-x-x-4-5-6-2-x-x-x-x-|
|-2-2-2-0-x-x-x-x-2-3-4-0-x-x-x-x-|-2-2-2-0-x-x-x-x-2-3-4-0-x-x-x-x-|


 Outro
  F#5   E5  E5    F#G5G#E5          F#5   E5      E5F#G5G#E5
  S S S S S S S S S S S S S S S S   S S S S S S S S S S S S S S S S
|---------------------------------|---------------------------------|
|---------------------------------|---------------------------------|
|---------------------------------|---------------------------------|
|-4-4-4-2---2---2-4-5-6-2---2---2-|-4-4-4-2---2---2-4-5-6-2---2---2-|
|-4-4-4-2---2---2-4-5-6-2---2---2-|-4-4-4-2---2---2-4-5-6-2---2---2-|
|-2-2-2-0---0---0-2-3-4-0---0---0-|-2-2-2-0---0---0-2-3-4-0---0---0-|


  F#5   E5        F#G5G#E5          F#5   E5      E5F#G5G#E5
  S S S S S S S S S S S S S S S S   S S S S S S S S S S S S S S S S
|---------------------------------|---------------------------------|
|---------------------------------|---------------------------------|
|---------------------------------|---------------------------------|
|-4-4-4-2---2---2-4-5-6-2---2---2-|-4-4-4-2---2---2-4-5-6-2---2---2-|
|-4-4-4-2---2---2-4-5-6-2---2---2-|-4-4-4-2---2---2-4-5-6-2---2---2-|
|-2-2-2-0---0---0-2-3-4-0---0---0-|-2-2-2-0---0---0-2-3-4-0---0---0-|


    E5                    F#G5G#E5    E5                    F#G5G#E5
  S S S S S S S S S S S S S S S S   S S S S S S S S S S S S S S S S
|---------------------------------|---------------------------------|
|---------------------------------|---------------------------------|
|---------------------------------|---------------------------------|
|---2---2-2-2---2---2---2-4-5-6-2-|---2-2---2-2---2---2---2-4-5-6-2-|
|---2---2-2-2---2---2---2-4-5-6-2-|---2-2---2-2---2---2---2-4-5-6-2-|
|---0---0-0-0---0---0---0-2-3-4-0-|---0-0---0-0---0---0---0-2-3-4-0-|


    E5                  E5F#G5G#E5    E5                    F#G5G#E5
  S S S S S S S S S S S S S S S S   S S S S S S S S S S S S S S S S
|---------------------------------|---------------------------------*|
|---------------------------------|---------------------------------*|
|---------------------------------|---------------------------------*|
|---2-2---2-2---2---2---2-4-5-6-2-|---2-2---2-2---2---2---2-4-5-6-2-*|
|---2-2---2-2---2---2---2-4-5-6-2-|---2-2---2-2---2---2---2-4-5-6-2-*|
|---0-0---0-0---0---0---0-2-3-4-0-|---0-0---0-0---0---0---0-2-3-4-0-*|


Duration Legend
---------------
W - whole; H - half; Q - quarter; E - 8th; S - 16th; T - 32nd; X - 64th; a - acciaccatura
+ - note tied to previous; . - note dotted; .. - note double dotted
Uncapitalized letters represent notes that are staccato (1/2 duration)
Irregular groupings are notated above the duration line
Duration letters will always appear directly above the note/fret number it represents the
duration for.  Duration letters with no fret number below them represent rests.  Multi-
bar rests are notated in the form Wxn, where n is the number of bars to rest for.  Low
melody durations appear below the staff

Tablature Legend
----------------
 h   - hammer-on
 p   - pull-off
 b   - bend
 pb  - pre-bend
 r   - bend release (if no number after the r, then release immediately)
 /\  - slide into or out of (from/to "nowhere")
 s   - legato slide
 S   - shift slide
  - natural harmonic
[n]  - artificial harmonic
n(n) - tapped harmonic
 ~   - vibrato
 tr  - trill
 T   - tap
 TP  - trem. picking
 PM  - palm muting
\n/  - tremolo bar dip; n = amount to dip
 \n  - tremolo bar down
 n/  - tremolo bar up
/n\  - tremolo bar inverted dip
 =   - hold bend; also acts as connecting device for hammers/pulls
 <>  - volume swell (louder/softer)
 x   - on rhythm slash represents muted slash
 o   - on rhythm slash represents single note slash

Misc Legend
-----------
 |  - bar
||  - double bar
||o - repeat start
o|| - repeat end
*|  - double bar (ending)
 :  - bar (freetime)
 $  - Segno
 &  - Coda
Tempo markers -  = BPM(8/16=s8/s16), where s8 = swing 8ths, s16 = swing 16ths


Related for Down tab