Song name
# A B C D E F G H I J K L M N O P Q R S T U V W X Y Z

40 Below Summer - Still Life tab

#----------------------------------PLEASE NOTE--------------------------------#
#This file is the author's own work and represents their interpretation of the#
#song. You may only use this file for private study, scholarship, or research.#
#-----------------------------------------------------------------------------#
#-- File created with Instab - http://www.pconline.com/~smcarey/instab.html --#
#-----------------------------------------------------------------------------#

Author/Artist: 40 Below Summer
Title: Still Life
Album: Invitation To The Dance
Transcribed by: Billy Donovan
Email: mrdonovan17@hotmail.com

B-F#-B-E-G#-C#

I tabbed just the fist string if they were all the same fret
Play all 3

x = palm mute

----|------------------|----------------------------------------------------------------|
----|------------------|----------------------------------------------------------------|
----|------------------|-------------------3--------------------------------------------|
-4--|-4--x4--x4--x4--4-|-2-2-2-2-2-2-2-----3--------------------------------------------|
-2--|-2--x2--x2--x2--2-|-2-2-2-2-2-2-2-----5--------------------------------------------|
-2---|2--x2--x2--x2--2----------|---------------------5---------------------------------|
 Riff 1                  end on

-------------------------|----------------------------------------------------|
-------------------------|----------------------------------------------------|
-------------------------|----------------------------------------------------|
-------------------------|----------------------------------------------------|
-------------------------|----------------------------------------------------|
-x2-x2-x2-x2-x2-x2-x2-x3-|-x2-x3-3--------------------------------------------|
 Riff 2 (The riff after this is the same as Riff 1)

-------------------------|----------------------------------------------------|
-------------------------|----------------------------------------------------|
-------------------------|----------------------------------------------------|
-------------------------|----------------------------------------------------|
-------------------------|----------------------------------------------------|
-5-5-5-5-4-4-4-4-x4-x4-4-|-3-3-2----------------------------------------------|
 Riff 3

------------------------------------------------------------------------------|
------------------------------------------------------------------------------|
------------------------------------------------------------------------------|
------------------------------------------------------------------------------|
------------------------------------------------------------------------------|
-x0-x1-x0-x1/x2-0-x0-x1-4-5---------------------------------------------------|
 Riff 4 (It was hard to tell on this part, its open for corrections)
Tap to rate this tab
# A B C D E F G H I J K L M N O P Q R S T U V W X Y Z