Song name
# A B C D E F G H I J K L M N O P Q R S T U V W X Y Z

40 Below Summer - Sunburn tab

40 Below Summer: Sunburn
Tabbed by 2Fisted
Tuning:Drop B

**starts off with just bass**
Intro/Verse(those are 10's not 1's and 0's)
----------------------------------|
----------------------------------|
----------------------------------|
----------------------------------|
-------------101099---------------|
-777779999910---------------------|
 ............
Chorus
----------------------------------|
----------------------------------|
----------------------------------|
-0~-2~-3-43-----------------------|
-0~-2~-3-43-----------------------|
-0~-2~-3-43-----------------------|
Interlude 1
----------------------------------|
----------------------------------|
----------------------------------|
-10~-9~---------------------------|
-10~-9~-0000----------------------|
-10~-9~-0000----------------------|
        ....
Interlude 2
----------------------------------|
----------------------------------|
----------------------------------|
----------------------------------|
----------------------------------|
-10-9-0000-32-323-----------------|
      ....
----------------------------------|
----------------------------------|
----------------------------------|
----------------------------------|
-----------3-2--------------------|
-10-9-0000-3-2--------------------|
      ....
Interlude 3 is Interlude 2 on 3 strings.
Interlude 4 is Interlude 3 with all notes but first 2 palm muted.
Tap to rate this tab
 
# A B C D E F G H I J K L M N O P Q R S T U V W X Y Z