Song name
# A B C D E F G H I J K L M N O P Q R S T U V W X Y Z

4ft Fingers - Hopeless Romantic tab

4ft Fingers - Hopeless Romantic
from the album 'At your convienience'

Intro, verse and chorus, listen to the cd for rhythm.


   E   B   C#   A

---7---7---9----5---|
---9---7---9----5---|
---9---8---10---6---|
---9---9---11---7---|
---7---9---11---7---|
---7---7---9----5---|

Bridge

  C#m  A

---4---5---|
---5---5---|
---5---6---|
---6---7---|
---4---7---|
---4---5---|

and thats it, a really simple and fun ska song to play.
Tap to rate this tab
 
# A B C D E F G H I J K L M N O P Q R S T U V W X Y Z