Song name
# A B C D E F G H I J K L M N O P Q R S T U V W X Y Z

4ft Fingers - Last Man Standing tab

--------------------------------------------------------------------------------
                     LAST MAN STANDING - 4FT FINGERS
--------------------------------------------------------------------------------

name: Adam Leatherby
email: fenderscratcher@hotmail.com

tuning: EADGBe

Intro & MAIN RIFF

e|-------------------------------------------------------------|
B|-------------------------------------------------------------|
G|--------------88888-------------------666666-----------------|
D|-33333-666666-88888-888888------33333-666666-66666666XXXXXX--|
A|-33333-666666-66666-888888------33333-444444-66666666XXXXXX--|
E|-11111-444444-------666666------11111--------44444444XXXXXX--|

(1:24)

e|------------------------------------|
B|------------------------------------|
G|------------------------------------|
D|------------------------------------|
A|-3-3-1h3--6-6-4h6--6-6-4h6--8-8-6h8-|
E|-1--------4--------4--------6-------|

(1:32)

e|--------------------------------|
B|--------------------------------|
G|--------------------------------|
D|-3---XX-3----XX-3----XX-3----3--|
A|-3---XX-3----XX-3----XX-3----3--|
E|-1---XX-1----XX-1----XX-1----1--|

(1:50)

Palm mute these chords

e|------------------------------|
B|------------------------------|
G|----------------88888---------|
D|--33333--66666--88888--88888--| x4
A|--33333--66666--66666--88888--| 
E|--11111--44444---------66666--|

there are some slight rhythm variations to the palm muted chords
after this but im sure your be able to work them out.

key:

|h = hammer on
|X = mute note
Tap to rate this tab
 
# A B C D E F G H I J K L M N O P Q R S T U V W X Y Z