Song name
# A B C D E F G H I J K L M N O P Q R S T U V W X Y Z

54-40 - Ocean Pearl tab

ok now this is my second tab, well not really bcuz  my other tab never went on balh
 ok neway,  i needed to learn this solo for rock band at schoool,  there were no tabs so i
to figure it out,  now i have nothing better to do so im gonna tab it


Tabber:Zebb Larue
Song: Ocean pearl.
Band:54-40

e------------------------------------------|
b------------------------------------------|
g--14b14b14b14b-15b-1414-15-14--12--0r12---|
d-----------------------------14----0r-----|
a------------------------------------------|
E------------------------------------------|

e----------------------------------------------------------------------------|
b---------------------20--20-22-22b21----------------------------------------|
g--/19-19-16-19-21-21-------------------20b20b--19-17-15-12b-----------------|
d------------------------------------------------------------14--------------|
a----------------------------------------------------------------------------|
E----------------------------------------------------------------------------|


e---------------------------|
b---------------------------|
g---12----------------------|
d------14--12-12------------|
a-----------------12--------|
E---------------------------|

i got an ocean pearl....

e----------------------------------------------------------------------------|
b----------------------------------------------------------------------------|
g-15~-----------14-------12------9~------------------------------------------|
d-x~---X7-------x--X2----x--X2---x~------------------------------------------|
a-13~-----------12-------10------7~------------------------------------------|
E----------------------------------------------------------------------------|

and i die without my o....cean...pearl!


e------------------------------------------------|
b------------------------------------------------|
g--xx-16------14------12-------------------------|
d--xx--x--X2---x--X2---x-X3----------------------|(hold this last chord and keep moving it
a--xx-14------12------10-------------------------|upfrets to raise the notes.  it sounds
e-------------------------------pretty acurate)--|

reapeat this part but then jst strum the last chord (g-12---)
                                                    (d--x---)
                                                    (a-10---)
for a while then randomly strum mostly that chord and a few other ones near it.  just 
to then song its hard to explain the way i play it

Well this is my first tab.  remember im only 12 but i think its pretty acurate.  Enjoy!

Zebb LaRue: E-mail: guitar_691@hotmail.com
Tap to rate this tab
# A B C D E F G H I J K L M N O P Q R S T U V W X Y Z