Guitaretab - guitar tabs
Song name
# A B C D E F G H I J K L M N O P Q R S T U V W X Y Z

6 Cycle Mind - Prinsesa tab

Song Title: Prinsesa
Artist: 6Cyclemind
Tabbed by: Ivann Kirk Macalinao
e-mail add/friendster acct: ivann_kirk23@yahoo.com.ph
Tuning: Half Step Down


NOTE: This is my very first tab, so please bear with me. This tab is not 100% correct 
it sounds all in all 90% alike. PAKI-RATE NAMAN PO… THANKS
This goes out to my Prinsesa. Shout-outs to all BSN II-2 of University of Batangas, 
to my friends Gerald, Etchie, Belvita, Ryan and Babylyn!!!! Rock ON!!!!
Cenxa na, di ko natapos ‘yung tab ng bass… cenxa na…
E-mail me for suggestions..


GUITAR 1: Electric Guitar
GUITAR 2: Acoustic Guitar

INTRO: D-D/C#-C-G

ACOUSTIC GUITAR:
eb|-------------12-14---------------12-14----------------12-14-14/15-14-12---------|
Bb|-15r----15----------15r-------15---------15r-----15---------------------15r-----|
Gb|-----14-------------------14------------------14--------------------------------|
Db|--------------------------------------------------------------------------------|
Ab|--------------------------------------------------------------------------------|
Eb|--------------------------------------------------------------------------------|

eb|----------------12-14---------------12-14----------------12-14-14/15-14-12------|
Bb|----15r----15----------15r-------15----------15r------15--------------------15r-|
Gb|-14-----14-------------------14-------------------14----------------------------|
Db|--------------------------------------------------------------------------------|
Ab|--------------------------------------------------------------------------------|
Eb|--------------------------------------------------------------------------------|

Ends With:

eb|----------|
Bb|-----15r--|
Gb|--14------|
Db|----------|
Ab|----------|
Eb|----------|

BASS: NOTE: this is just 65% correct… di po ko masyado marunong mag-bass… hehe… all of 
bass tab po e 65% correct lng… just listen to the song to get the timing…

Ab|--5-----------5-5---------------5-----------5-3--------|
Eb|----5-5--7---------5--7-----------5-5--7----------5-3--|


VERSE 1: D-D/C#-C-G

ACOUSTIC GUITAR:

eb|------------------------------------------------3-2-3--|
Bb|----3-T----3-T-----3-T-----3-T------3-T----3-T--3-3-3--|
Gb|----2-A----2-A-----2-A-----2-A------2-A----2-A---------|
Db|--0---P--0---P-------P---0---P--------P------P--0-0-0--|
Ab|----------------4------4--------0-3------3-------------|
Eb|-------------------------------------------------------|
       Nakaupo sya sa isang madilim na sulok


eb|-------------------------------------------------------------------|
Bb|----3-T----3-T-----3-T-----3-T------3-T----3-T-------3-T------3-T--|
Gb|----2-A----2-A-----2-A-----2-A------2-A----2-A-------2-A------2-A--|
Db|--0---P--0---P-------P---0---P--------P------P---------P--------P--|
Ab|----------------4------4--------0-3------3------0-----------2------|
Eb|---------------------------------------------------3------3--------|
       Ewan ko ba kung bakit sa libu-libong babaeng nandoon


eb|-------------------------------------------------------------------|
Bb|----3-T----3-T-----3-T-----3-T------3-T----3-T-------3-T------3-T--|
Gb|----2-A----2-A-----2-A-----2-A------2-A----2-A-------2-A------2-A--|
Db|--0---P--0---P-------P---0---P--------P------P---------P--------P--|
Ab|----------------4------4--------0-3------3------0-----------2------|
Eb|---------------------------------------------------3------3--------|
       Wala pang isang minuto nahulog na ang loob ko sayo


Then:

eb|------------------------------------------------3-2-0---|
Bb|----3-T----3-T-----3-T-----3-T------3-T----3-T--------3-|
Gb|----2-A----2-A-----2-A-----2-A------2-A----2-A----------|
Db|--0---P--0---P-------P---0---P--------P------P----------|
Ab|----------------4------4--------0-3------3--------------|
Eb|--------------------------------------------------------|

VERSE 2: D-D/C#-C-G

ACOUSTIC GUITAR:

eb|-------------------------------------------------------------------|
Bb|----3-T----3-T-----3-T-----3-T------3-T----3-T-------3-T------3-T--|
Gb|----2-A----2-A-----2-A-----2-A------2-A----2-A-------2-A------2-A--|
Db|--0---P--0---P-------P---0---P--------P------P---------P--------P--|
Ab|----------------4------4--------0-3------3------0-----------2------|
Eb|---------------------------------------------------3------3--------|
       Gusto ko sanang marinig ang tinig mo………………  umasa na rin na


eb|------------------------------------------------3-2-3--|
Bb|----3-T----3-T-----3-T-----3-T------3-T----3-T--3-3-3--|
Gb|----2-A----2-A-----2-A-----2-A------2-A----2-A---------|
Db|--0---P--0---P-------P---0---P--------P------P--0-0-0--|
Ab|----------------4------4--------0-3------3-------------|
Eb|-------------------------------------------------------|
       Sana’y mahawakan ko ang palad mo


eb|-------------------------------------------------------------------|
Bb|----3-T----3-T-----3-T-----3-T------3-T----3-T-------3-T------3-T--|
Gb|----2-A----2-A-----2-A-----2-A------2-A----2-A-------2-A------2-A--|
Db|--0---P--0---P-------P---0---P--------P------P---------P--------P--|
Ab|----------------4------4--------0-3------3------0-----------2------|
Eb|---------------------------------------------------3------3--------|
       Gusto ko sanang lumapit kundi lang sa lalaking kayakap


eb|------------------------------------------------3-2-0--|
Bb|----3-T----3-T-----3-T-----3-T------3-T----3-T---------|
Gb|----2-A----2-A-----2-A-----2-A------2-A----2-A---------|
Db|--0---P--0---P-------P---0---P--------P------P---------|
Ab|----------------4------4--------0-3------3-------------|
Eb|-------------------------------------------------------|
       mo……                        ohh wohh ohh..


Chorus:

ACOUSTIC GUITAR:
                  A     			  D
eb|----------------------------------|-----2------2-----------|
Bb|-----2-T----2-T------2-T------2-T-|-----3-T----3-T---------|
Gb|-----2-A----2-A------2-A------2-A-|-----2-A----2-A-(3X)----|
Db|-------P------P----2---P----2---P-|---0---P--0---P---------|
Ab|-0-0------0------0--------0-------|--0---------------------|
Eb|----------------------------------|------------------------|
    Dalhin mo ako sa		  iyong palasyo


BASS:

Ab|----------------------------------|--5-0-0----5-5-0-0---5--|
Eb|-5—0-0---5-5-0-0---5--------------|------------------------|

[ Tab from: http://www.guitaretab.com/numeric/6-cycle-mind/151455.html ]
	        A				  D
eb|----------------------------------|-----2------2-------------|
Bb|-----2-T----2-T------2-T------2-T-|-----3-T----3-T-----------|
Gb|-----2-A----2-A------2-A------2-A-|-----2-A----2-A-(3X)------|
Db|-------P------P----2---P----2---P-|---0---P--0---P-----------|
Ab|-0-0------0------0--------0-------|--0-----------------------|
Eb|----------------------------------|--------------------------|
    Maglakad tayo sa		  hardin ng ‘yong kaharian


BASS:

Ab|----------------------------------|--5-0-0----5-5-0-0---5--|
Eb|-5—0-0---5-5-0-0---5--------------|------------------------|


                  A     			  D
eb|----------------------------------|-----2------2----------------------|
Bb|-----2-T----2-T------2-T------2-T-|-----3-T----3-T--------------------|
Gb|-----2-A----2-A------2-A------2-A-|-----2-A----2-A-(3X)---------------|
Db|-------P------P----2---P----2---P-|---0---P--0---P--------------------|
Ab|-0-0------0------0--------0-------|--0--------------------------------|
Eb|----------------------------------|-----------------------------------|
     Wala man akong pag-aari		  pangako kong habang-buhay kitang


BASS:

Ab|----------------------------------|--5-0-0----5-5-0-0---5--|
Eb|-5—0-0---5-5-0-0---5--------------|------------------------|


                  A     		    	Gm
eb|----------------------------------|----------7----------|
Bb|-----2-T----2-T------2-T------2-T-|----------8----------|
Gb|-----2-A----2-A------2-A------2-A-|----------7----------|
Db|-------P------P----2---P----2---P-|----------0----------|
Ab|---0------0------0--------0-------|---------------------|
Eb|----------------------------------|---------------------|
      Pagsisilbihan…		 oh aking prinsesa…ahhaahha

BASS:

Ab|----------------------------------|-----5---------------|
Eb|-5—0-0---5-5-0-0---5--------------|---------------------|


THEN:

eb|--5/6-5-3---------------------|
Bb|-----------7--3---------------|
Gb|------------------------------|
Db|------------------------------|
Ab|------------------------------|
Eb|------------------------------|


And then:

GUITAR 1: D-D/C#-C-G

GUITAR 2 (ACOUSTIC GUITAR):
eb|-------------12-14---------------12-14----------------12-14-14/15-14-12---------|
Bb|-15r----15----------15r-------15---------15r-----15---------------------15r-----|
Gb|-----14-------------------14------------------14--------------------------------|
Db|--------------------------------------------------------------------------------|
Ab|--------------------------------------------------------------------------------|
Eb|--------------------------------------------------------------------------------|

eb|----------------12-14---------------12-14----------------12-14-14/15-14-12------|
Bb|----15r----15----------15r-------15----------15r------15--------------------15r-|
Gb|-14-----14-------------------14-------------------14----------------------------|
Db|--------------------------------------------------------------------------------|
Ab|--------------------------------------------------------------------------------|
Eb|--------------------------------------------------------------------------------|


BASS:

Ab|--5-----------5-5---------------5-----------5-3--------|
Eb|----5-5--7---------5--7-----------5-5--7----------5-3--|

1st adlib:

Guitar 1: Do chords D-D/C#-C-G 2x


Guitar 2 (ACOUSTIC GUITAR):
eb|------------------------------|
Bb|-7-8-10-10/12-10-8-7---8p7----|
Gb|---------------------7-----7--|
Db|------------------------------|2x
Ab|------------------------------|
Eb|------------------------------|

Ends with:
eb|---10—12/14r---|
Bb|---------------|
Gb|---------------|
Db|---------------|
Ab|---------------|
Eb|---------------|


Verse 3: Do Verse 1 chords (D-D/C#-C-G)
Chorus: A-D (POWER CHORDS)(Palm mute)

	   Gm
eb|----------7----------|
Bb|----------8----------|
Gb|----------7----------|
Db|----------0----------|
Ab|---------------------|
Eb|---------------------|
  oh aking prinsesa…ahhaahha


THEN:

eb|--5/6-5-3---------------------|
Bb|-----------7--3---------------|
Gb|------------------------------|
Db|------------------------------|
Ab|------------------------------|
Eb|------------------------------|


2nd Adlib:
NOTE: I think this is 80% correct.

Guitar 1: Do chords D-D/C#-C-G 2x

Guitar 2 (ACOUSTIC GUITAR):
eb|--------------------------------------------------~----------------------------------|
Bb|-----------------------------------------5---8h10-7----------------------------13-15-|
Gb|------7---9b7-----7r----------------5-7--------------9-7-9----11/9--7----12h14-------|
Db|-6h7------------9-----------4-5--7---------------------------------------------------|
Ab|-----------------------5h7-----------------------------------------------------------|
Eb|-------------------------------------------------------------------------------------|

eb|-----------12-14—15r---14—12r---------------12-14-15r---14----|
Bb|--------15-------------------------------15-------------------|
Gb|--14-14---------------------------14-14-----------------------|
Db|--------------------------------------------------------------|
Ab|--------------------------------------------------------------|
Eb|--------------------------------------------------------------|

Ends With:

eb|--------------------|
Bb|--------------------|
Gb|--11/12/11----------|
Db|------------14-12r--|
Ab|--------------------|
Eb|--------------------|


OUTRO:

eb|-------------12-14---------------12-14----------------12-14-14/15-14-12---------|
Bb|-15r----15----------15r-------15---------15r-----15---------------------15r-----|
Gb|-----14-------------------14------------------14--------------------------------|
Db|--------------------------------------------------------------------------------|
Ab|--------------------------------------------------------------------------------|
Eb|--------------------------------------------------------------------------------|

eb|----------------12-14---------------12-14----------------12-14-14/15-14-12------|
Bb|----15r----15----------15r-------15----------15r------15--------------------15r-|
Gb|-14-----14-------------------14-------------------14----------------------------|
Db|--------------------------------------------------------------------------------|
Ab|--------------------------------------------------------------------------------|
Eb|--------------------------------------------------------------------------------|

Ends with D

r- let ring
p- pull
h- hammer
l- lovely
d- darlyn
Related for Prinsesa tab
Prinsesa chords by 6 Cycle Mind