Song name
# A B C D E F G H I J K L M N O P Q R S T U V W X Y Z

69 Eyes - The Chair tab

#----------------------------------PLEASE NOTE---------------------------------#
#This file is the author's own work and represents their interpretation of the #
#song. You may only use this file for private study, scholarship, or research. #
#------------------------------------------------------------------------------##

                                    THE CHAIR
                           As recorded by The 69 Eyes
                        (From the 2000 Album BLESSED BE)

Words by Jyrki

Music by Bazie
Arranged by The 69 Eyes
Transcribed by vitaha_z

         A5VII                F5III                 G5V                D5open
      7 7 7 x x x          3 3 3 x x x          5 5 5 x x x          0 0 0 x x x

         E5II                 D5/AV
      2 2 2 x x x          7 5 7 x x x

Gtr I (Db Ab Db Gb Bb Eb) - 'Clean Guitar'
Gtr II (Eb Ab Db Gb Bb Eb) - 'Piano'
Gtr III (Db Ab Db Gb Bb Eb) - 'Distorted Guitar '
Gtr IV (Db Ab Db Gb Bb Eb) - 'Untitled'

 Intro
  Q=128
  N.C.
 4/4
  Gtr I
  E E E E E E E E   +E  E E +E  E  E  E E
|-----------------|-----------------------|
|---5-----5-----6-|-(6)---5-(5)-5h(6)-5---|
|-----5-----5-----|-----------------------|
|-7-----7-----7---|-----7---------------7-|
|-----------------|-----------------------|
|-----------------|-----------------------|


  +E  E E E E E E E   +E  E E +E  E  E  Q
|-------------------|-----------------------|
|-----5-----5-----6-|-(6)---5-(5)-5h(6)-5---|
|-------5-----5-----|-----------------------|
|-(7)-----7-----7---|-----7-----------------|
|-------------------|-----------------------|
|-------------------|-----------------------|


  A5VII             F5III
  Gtr III
  H..               E   +W
  |                 |    |
  /                 /    /

  E   E E E  E  E E E   +E  E E +E  E  E  E E
|---------------------|-----------------------|
|-----5------5------6-|-(6)---5-(5)-5h(6)-5-5-|
|-------5-------5-----|-----------------------|
|-7-------7-------7---|-----7-----------------|
|---------------------|-----------------------|
|---------------------|-----------------------|
|
| Gtr II
| E   E Q   +E  E E E   +W
|-5---7-8---(8)-7-5---|-----------------------|
|-------------------6-|-(6)-------------------|
|---------------------|-----------------------|
|---------------------|-----------------------|
|---------------------|-----------------------|
|---------------------|-----------------------|
|
| Gtr IV
| E   E Q   +E  E E E   +W
|---------------------|-----------------------|
|---------------------|-----------------------|
|-2---4-5---(5)-4-2---|-----------------------|
|-------------------3-|-(3)-------------------|
|---------------------|-----------------------|
|---------------------|-----------------------|


  D5open             G5V
   H..               E   +W
   |                 |    |
   /                 /    /

  +E   E E E  E  E E E   +E  E E +E   E   E  E E
|----------------------|-------------------------|
|-(5)--3------3--------|-------------------------|
|--------4-------4---5-|-(5)---4-(4)--4h=(5)-4---|
|----------5-------5---|-----5-----------------5-|
|----------------------|-------------------------|
|----------------------|-------------------------|
|
|  E   E Q   +E  E E E   +Q.      E  +H
|----------------3-5-8-|-(8)------7--(7)---------|
|------5-6---(6)-------|-------------------------|
|--7-------------------|-------------------------|
|----------------------|-------------------------|
|----------------------|-------------------------|
|----------------------|-------------------------|
|
|  E   E Q   +E  E E E   +Q.      E  +H
|----------------------|-------------------------|
|----------------------|-------------------------|
|----------------0-2-5-|-(5)------4--(4)---------|
|--0---2-3---(3)-------|-------------------------|
|----------------------|-------------------------|
|----------------------|-------------------------|


  A5VII             F5III
  H..               E   +W
  |                 |    |
  /                 /    /

  E   E E E  E  E E E   +E  E E +E  E  E  E E
|---------------------|-----------------------|
|-----5------5------6-|-(6)---5-(5)-5h(6)-5-5-|
|-------5-------5-----|-----------------------|
|-7-------7-------7---|-----7-----------------|
|---------------------|-----------------------|
|---------------------|-----------------------|
|
| E   E Q   +E  E E E   +W
|-5---7-8---(8)-7-5---|-----------------------|
|-------------------6-|-(6)-------------------|
|---------------------|-----------------------|
|---------------------|-----------------------|
|---------------------|-----------------------|
|---------------------|-----------------------|
|
| E   E Q   +E  E E E   +W
|-5---7-8---(8)-7-5---|-----------------------|
|-------------------6-|-(6)-------------------|
|---------------------|-----------------------|
|---------------------|-----------------------|
|---------------------|-----------------------|
|---------------------|-----------------------|


  D5open             G5V
   H..               E   +W
   |                 |    |
   /                 /    /

  +E   E E E  E  E E E   +E  E E +E   E   E  Q
|----------------------|------------------------||
|-(5)--3------3--------|------------------------||
|--------4-------4---5-|-(5)---4-(4)--4h=(5)-4--||
|----------5-------5---|-----5------------------||
|----------------------|------------------------||
|----------------------|------------------------||
|
|  E   E Q   +E  E E E   +Q.      E  +H
|------------------5-8-|-(8)------7--(7)--------||
|------5-6---(6)-8-----|------------------------||
|--7-------------------|------------------------||
|----------------------|------------------------||
|----------------------|------------------------||
|----------------------|------------------------||
|
|  E   E Q   +E  E E E   +Q.      E  +H
|------------------5-8-|-(8)------7--(7)--------||
|------5-6---(6)-8-----|------------------------||
|--7-------------------|------------------------||
|----------------------|------------------------||
|----------------------|------------------------||
|----------------------|------------------------||


   Verse
    $
    A5VII                        G5V             F5III
    Gtr I
    E E Q  +H       +W           E E Q  +H       E E Q  +H      3x
||----------------|------------|---------------|----------------||
||o---------------|------------|---------------|---------------o||
||----------------|------------|---------------|----------------||
||------7--(7)----|-(7)--------|-----5--(5)----|-----3--(3)-----||
||o---7-----------|------------|---5-----------|---3-----------o||
||--7-------------|------------|-5-------------|-3--------------||


  A5VII           F5III           G5V             F5III
  E E Q  +H       E E Q  +H       E E Q  +H       E E Q  +H
|---------------|---------------|---------------|---------------||
|---------------|---------------|---------------|---------------||
|---------------|---------------|---------------|---------------||
|-----7--(7)----|-----3--(3)----|-----5--(5)----|-----3--(3)----||
|---7-----------|---3-----------|---5-----------|---3-----------||
|-7-------------|-3-------------|-5-------------|-3-------------||


 Pre-Chorus
  E5II       F5III            E5II       D5open  D5/AV
  Gtr III
  H    E E E E   +W           H    E E E E   +E  Q  E H      +E  Q  E H
|--------------|------------|--------------|---------------|---------------||
|--------------|------------|--------------|---------------|---------------||
|--------------|------------|--------------|---------------|---------------||
|-2----x-x-x-3-|-(3)--------|-2----x-x-x-0-|-(0)-7--x-7----|-(7)-7--x-7----||
|-2----x-x-x-3-|-(3)--------|-2----x-x-x-0-|-(0)-5--x-5----|-(5)-5--x-5----||
|-2----x-x-x-3-|-(3)--------|-2----x-x-x-0-|-(0)-7--x-7----|-(7)-7--x-7----||


   Chorus
    A5VII           F5III
    Gtr III
    H..             E   +W
    |               |    |
    /               /    /

    Gtr I
    E   E E E E E E E   +E  E E +E  E  E  E E
||--------------------|-----------------------|
||o-----5-----5-----6-|-(6)---5-(5)-5h(6)-5-5-|
||--------5-----5-----|-----------------------|
||--7-------7-----7---|-----7-----------------|
||o-------------------|-----------------------|
||--------------------|-----------------------|


                                       D.S.
  D5open           G5V
   H..             E   +W
   |               |    |
   /               /    /

  +E   E E E E E E E   +E  E E +E  E  E  E E
|--------------------|-------------------------||
|-(5)--3-----3-------|------------------------o||
|--------4-----4---5-|-(5)---4-(4)-4h(5)-4-----||
|----------5-----5---|-----5---------------5---||
|--------------------|------------------------o||
|--------------------|-------------------------||


    A5VII           F5III                       D5open           G5V
    H..             E   +W                       H..             E
    |               |    |                       |               |
    /               /    /                       /               /

    E   E E E E E E E   +E  E E +E  E  E  E E   +E   E E E E E E E
||--------------------|-----------------------|--------------------|
||o-----5-----5-----6-|-(6)---5-(5)-5h(6)-5-5-|-(5)--3-----3-------|
||--------5-----5-----|-----------------------|--------4-----4---5-|
||--7-------7-----7---|-----7-----------------|----------5-----5---|
||o-------------------|-----------------------|--------------------|
||--------------------|-----------------------|--------------------|
|
|   Gtr IV
|   W                    W                       W
||--------------------|-----------------------|--------------------|
||o-------------------|-----------------------|--------------------|
||--------------------|-----------------------|--------------------|
||--------------------|-----------------------|--------------------|
||o-------------------|-----------------------|--------------------|
||--------------------|-----------------------|--------------------|


 1.                        2.
  +W                        +W
   |                         |
   /                         /

  +E  E E +E  E  E  E E      E  E E +E  E  E   E E
|------------------------||--------------------------||
|-----------------------o||--------------------------||
|-(5)---4-(4)-4h(5)-4----||-(5)---4-(4)-4h(5)--4-----||
|-----5---------------5--||-----5----------------5---||
|-----------------------o||--------------------------||
|------------------------||--------------------------||
|
|  W                         H          E  E   E E
|------------------------||--------------------------||
|-----------------------o||--------------------------||
|------------------------||--------------------------||
|------------------------||----------------------7---||
|-----------------------o||-------------------10-----||
|------------------------||---------------12---------||


 Guitar Solo
  F5III         G5V                E5II
  Gtr III
  H..            E    +W           Q    H      E E   +W
  |              |     |           |    |      | |    |
  /              /     /           /    /      / /    /

  Gtr IV
  E    E H    E  E    +W           Q    Q.   E E E   +H     +E  E E E
|------------------|-------------|-----------------|----------------5-|
|------------------|-------------|-----------------|--------------8---|
|------------------|-------------|-7b9r=7----5-5s9-|-(9)----(9)-7-----|
|-9---10-9----7----|-------------|-----------------|------------------|
|---------------10-|-(10)--------|-----------------|------------------|
|------------------|-------------|-----------------|------------------|


  F5III        G5V              E5II                                  D5open
  H..          E   +W            H..                                   E
  |            |    |            |                                     |
  /            /    /            /                                     /

  E   E H    E E   +W            E     E  S  S  E     +E   S  S  E     E
|-7---8-7----5---|------------|----------15------------------15----------|
|--------------8-|-(8)--------|-15b17-17----17-15b17-(15)-17----15b17-17-|
|----------------|------------|------------------------------------------|
|----------------|------------|------------------------------------------|
|----------------|------------|------------------------------------------|
|----------------|------------|------------------------------------------|


                 D5/AV
  +E       Q      E  Q          Q       +E   Q       E  Q        Q
   |       |      |  |          |        |   |       |  |        |
   /       /      x  /          /        /   /       x  /        /

                                                                    ~~
   E      +E   E  E  E     +E   E  E    +E   E  +E   E  S  S  E  E  E
|-15b17==(15)r15---------------------|-----------------15----------17-||
|----------------17-15b17r(15)-13-17-|-(17)-17-(17)-17----17-15-17----||
|------------------------------------|--------------------------------||
|------------------------------------|--------------------------------||
|------------------------------------|--------------------------------||
|------------------------------------|--------------------------------||


 Interlude
  N.C.
  Gtr II
    E  E Q   +E  E E E    +W             E  E Q  +E  E E E    +Q.   E +H
|---5--7-8---(8)-7-5---|-------------|---------------3-5-8-|--(8)---7-(7)----|
|--------------------6-|--(6)--------|------5-6--(6)-------|-----------------|
|----------------------|-------------|---7-----------------|-----------------|
|----------------------|-------------|---------------------|-----------------|
|----------------------|-------------|---------------------|-----------------|
|----------------------|-------------|---------------------|-----------------|
|
| Gtr IV
|             >
|   ~~~~
|  +H        +H           +W            +W                    +W
|-(17)------(17)-------|-(17)--------|-(17)----------------|-(17)------------|
|----------------------|-------------|---------------------|-----------------|
|----------------------|-------------|---------------------|-----------------|
|----------------------|-------------|---------------------|-----------------|
|----------------------|-------------|---------------------|-----------------|
|----------------------|-------------|---------------------|-----------------|


  E E Q  +E  E E E   +W           E E Q  +E  E E E   +Q.   E +H
|-5-7-8--(8)-7-5---|------------|------------3-5-8-|-(8)---7-(7)----|
|----------------6-|-(6)--------|---5-6--(6)-------|----------------|
|------------------|------------|-7----------------|----------------|
|------------------|------------|------------------|----------------|
|------------------|------------|------------------|----------------|
|------------------|------------|------------------|----------------|


  E E Q  +E  E E E   +W           E E Q  +E  E E E   +Q.   E +H
|-5-7-8--(8)-7-5---|------------|------------3-5-8-|-(8)---7-(7)----|
|----------------6-|-(6)--------|---5-6--(6)-------|----------------|
|------------------|------------|-7----------------|----------------|
|------------------|------------|------------------|----------------|
|------------------|------------|------------------|----------------|
|------------------|------------|------------------|----------------|


  E E Q   +E  E E E   +W
|-5-7-8---(8)-7-5---|-----------------------|
|-----------------6-|-(6)-------------------|
|-------------------|-----------------------|
|-------------------|-----------------------|
|-------------------|-----------------------|
|-------------------|-----------------------|
|
| Gtr I
| E E E E  E  E E E   +E  E E +E  E  E  E E
|-------------------|-----------------------|
|---5------5------6-|-(6)---5-(5)-5h(6)-5-5-|
|-----5-------5-----|-----------------------|
|-7-----7-------7---|-----7-----------------|
|-------------------|-----------------------|
|-------------------|-----------------------|


   E  E Q   +E  E E E   +Q.     E +H
|---------------3-5-8-|-(8)-----7-(7)--------||
|-----5-6---(6)-------|----------------------||
|--7------------------|----------------------||
|---------------------|----------------------||
|---------------------|----------------------||
|---------------------|----------------------||
|
| +E  E E E  E  E E E   +E  E E E  E  E  E E
|---------------------|----------------------||
|-(5)-3------3--------|----------------------||
|-------4-------4---5-|-(5)---4-4--4h(5)-4---||
|---------5-------5---|-----5--------------5-||
|---------------------|----------------------||
|---------------------|----------------------||


   Out-Chorus
    A5VII             F5III
    Gtr III
    H..               E   +W
    |                 |    |
    /                 /    /

    Gtr I
    E   E E E  E  E E E   +E  E E +E  E  E  E E
||----------------------|-----------------------|
||o-----5------5------6-|-(6)---5-(5)-5h(6)-5-5-|
||--------5-------5-----|-----------------------|
||--7-------7-------7---|-----7-----------------|
||o---------------------|-----------------------|
||----------------------|-----------------------|
|
|   Gtr II
|   E   E Q   +E  E E E   +W
||--5---7-8---(8)-7-5---|-----------------------|
||o-------------------6-|-(6)-------------------|
||----------------------|-----------------------|
||----------------------|-----------------------|
||o---------------------|-----------------------|
||----------------------|-----------------------|


  D5open             G5V
   H..               E   +W
   |                 |    |
   /                 /    /

  +E   E E E  E  E E E   +E  E E E  E   E  E E   4x
|----------------------|-------------------------||
|-(5)--3------3--------|------------------------o||
|--------4-------4---5-|-(5)---4-4--4h=(5)-4-----||
|----------5-------5---|-----5---------------5---||
|----------------------|------------------------o||
|----------------------|-------------------------||
|
|  E   E Q   +E  E E E   +Q.     E +H            4x
|----------------3-5-8-|-(8)-----7-(7)-----------||
|------5-6---(6)-------|------------------------o||
|--7-------------------|-------------------------||
|----------------------|-------------------------||
|----------------------|------------------------o||
|----------------------|-------------------------||


    A5VII                   F5III
     H..                     E    +W
     |                       |     |
     /                       /     /

     E    E  E E   E   E  E  E    +E  E E +E  E  E  E E
||-----------------------------|------------------------|
||o-------5--------5---------6-|--(6)---5-(5)-5h(6)-5-5-|
||-----------5---------5-------|------------------------|
||---7---------7----------7----|------7-----------------|
||o----------------------------|------------------------|
||-----------------------------|------------------------|
|
|    E    E  Q    +E   E  E  E    +W
||--17---19-20---(20)-19-17----|------------------------|
||o-------------------------18-|-(18)-------------------|
||-----------------------------|------------------------|
||-----------------------------|------------------------|
||o----------------------------|------------------------|
||-----------------------------|------------------------|


  D5open                  G5V
   H..                     E    +W
   |                       |     |
   /                       /     /

  +E    E  E E   E   E  E  E    +E  E E  E   E   E  E E
|----------------------------|----------------------------||
|-(5)---3--------3-----------|---------------------------o||
|----------4---------4-----5-|--(5)---4--4---4h=(5)-4-----||
|------------5----------5----|------5-----------------5---||
|----------------------------|---------------------------o||
|----------------------------|----------------------------||
|
|  E    E  Q    +E   E  E  E    +Q.      E  +H
|-------------------15-17-20-|-(20)-----19-(19)-----------||
|------17-18---(18)----------|---------------------------o||
|-19-------------------------|----------------------------||
|----------------------------|----------------------------||
|----------------------------|---------------------------o||
|----------------------------|----------------------------||


  Q=86        H.=H
  A5VII
  Gtr III
               >
   H          +H             +W                            +W
|--------------------------|----------------------------|-------------------*|
|--------------------------|----------------------------|-------------------*|
|--------------------------|----------------------------|-------------------*|
|--7----------(7)----------|-(7)------------------------|--(7)--------------*|
|--7----------(7)----------|-(7)------------------------|--(7)--------------*|
|--7----------(7)----------|-(7)------------------------|--(7)--------------*|
|
|  E  E  E  E  E   E  E  E    E   E  E  E  E  E  E   E      E    E    H.
|-20-22-24-19-20--22-17-19-|-20-----17-19-------17------|-(17)------(17)----*|
|--------------------------|-----20-------18-20----(20)-|------(20)---------*|
|--------------------------|----------------------------|-------------------*|
|--------------------------|----------------------------|-------------------*|
|--------------------------|----------------------------|-------------------*|
|--------------------------|----------------------------|-------------------*|


Duration Legend
---------------
W - whole; H - half; Q - quarter; E - 8th; S - 16th; T - 32nd; X - 64th; a - acciaccatura
+ - note tied to previous; . - note dotted; .. - note double dotted
Uncapitalized letters represent notes that are staccato (1/2 duration)
Irregular groupings are notated above the duration line
Duration letters will always appear directly above the note/fret number it represents the
duration for.  Duration letters with no fret number below them represent rests.  Multi-
bar rests are notated in the form Wxn, where n is the number of bars to rest for.  Low
melody durations appear below the staff

Tablature Legend
----------------
 h   - hammer-on
 p   - pull-off
 b   - bend
 pb  - pre-bend
 r   - bend release (if no number after the r, then release immediately)
 /\  - slide into or out of (from/to "nowhere")
 s   - legato slide
 S   - shift slide
  - natural harmonic
[n]  - artificial harmonic
n(n) - tapped harmonic
 ~   - vibrato
 tr  - trill
 T   - tap
 TP  - trem. picking
 PM  - palm muting
\n/  - tremolo bar dip; n = amount to dip
 \n  - tremolo bar down
 n/  - tremolo bar up
/n\  - tremolo bar inverted dip
 =   - hold bend; also acts as connecting device for hammers/pulls
 <>  - volume swell (louder/softer)
 x   - on rhythm slash represents muted slash
 o   - on rhythm slash represents single note slash

Misc Legend
-----------
 |  - bar
||  - double bar
||o - repeat start
o|| - repeat end
*|  - double bar (ending)
 :  - bar (freetime)
 $  - Segno
 &  - Coda
Tempo markers -  = BPM(8/16=s8/s16), where s8 = swing 8ths, s16 = swing 16ths
Tap to rate this tab
# A B C D E F G H I J K L M N O P Q R S T U V W X Y Z