Guitaretab - guitar tabs
Song name
# A B C D E F G H I J K L M N O P Q R S T U V W X Y Z

7 Seconds - Trust tab

Trust
7 seconds
from the "The crew"
[ Tab from: http://www.guitaretab.com/numeric/7-seconds/170452.html ]
Verse
e---------------------------------------------------------|
B-7-7-7-7-7-7-7-7-----------------------------6-6-6-6-6-6-|
G-6-6-6-6-6-6-6-6-6-6-6-6-6-6-6-3-3-3-3-3-3-3-5-5-5-5-5-5-|
D-4-4-4-4-4-4-4-4-6-6-6-6-6-6-6-3-3-3-3-3-3-3-3-3-3-3-3-3-|
A-----------------4-4-4-4-4-4-4-1-1-1-1-1-1-1-------------|
E---------------------------------------------------------|


Chorus

e-----------------------------------------------------------|
B-----------------------------------------------------------|
G-------------------------------------------7-7-7-7-7-7-7-7-|
D-7-7-7-7-7-7-7-6-6-6-6-6-6-6-4-4-4-4-4-4-4-7-7-7-7-7-7-7-7-|
A-7-7-7-7-7-7-7-6-6-6-6-6-6-6-4-4-4-4-4-4-4-5-5-5-5-5-5-5-5-|
E-5-5-5-5-5-5-5-4-4-4-4-4-4-4-2-2-2-2-2-2-2-----------------|
Related for Trust tab
Trust chords by 7 Seconds