Guitaretab - guitar tabs
Song name
# A B C D E F G H I J K L M N O P Q R S T U V W X Y Z

8 Foot Sativa - Gutless tab

Tuning – c#, g#, e, b, f#, B - highest to lowest (Like dropped d but all strings down 3 semi-tones)

	^ Hammer on / pull off


Riff A
|----------------------------------------|
|----------------------------------------|
|----------------------------------------|
|----------------------------------------|
|--------------------111111111111--------|
|----0000000000003333------------2222----|
/                                          [Ending]
|---------------------------------------- / --------|
|---------------------------------------- / --------|
|---------------------------------------- / --------|
|------------------------2222----7777---- / ----0---|
|--------------------1111----4444-------- / ----0---|
|----0000000000003333-------------------- / ----0---|


	Riff B
|--------------------------------------------------------------------|
|--------------------------------------------------------------------|
|--------------------------------------------------------------------|
|-----------------5—-7----5—-2------5--2—-2--------2—-3--5--3--2--3--|
|----0—-0-0-0-0-0-3—-5----5--2—-0-0-5--2—-2-2^3^2—-2—-3--5--3--2--3--|
|----0—-0-0-0-0-0-------0-5—-2—-0-0-5—-2—-2-2^3^2--2—-3—-5--3--2—-3—-|
[ Tab from: http://www.guitaretab.com/numeric/8-foot-sativa/157635.html ]
	Riff C
     |-PM- ---- ---- ---- ---- ---- ---- ---- ----|
|----------------------------------------------------------------|
|----------------------------------------------------------------|
|----------------------------------------------------------------|
|----000000000000333322222222222255553333333333338----2-----7----|
|--------------------------------------------------1-----4-------|
|----------------------------------------------------------------|

	Riff D
|---------------------------------------------------------|
|---------------------------------------------------------|
|----9--9--9--9-9--9-109---9--7--5--7--4--4--5-4----------|
|----7--7--7--7-7--7-8-7---7--5—-3—-5--2--2--3-2-5--------|
|------------------------------------------------3—111----|
|---------------------------------------------------------|

	Riff E
|-----------------------------------------------------------------|
|-----------------------------------------------------------------|
|-----------------------------------------------------------------|
|------------666655553--3-3-1-1-1---------666655553--3-3-6-6-6----|
|------------666655553--3-3-1-1-1---------666655553--3-3-6-6-6----|
|----00000000666655553--3-3-1-1-1-00000000666655553--3-3-6-6-6----|


This is the order that the riffs are played In:

Riff A  X 4
Riff B  X 4
Riff C
Riff A  X 4
Riff B  X 4
Riff D  X 4
Riff C
Riff A  X 4
Riff B  X 4
Riff E  X 8
Riff C
Riff A  X 4

I think that’s pretty much it have fun.

Tabbed by
Robopope69
Related for Gutless tab
Advertisement will be closed in 10 seconds