Guitaretab - guitar tabs
Song name
# A B C D E F G H I J K L M N O P Q R S T U V W X Y Z

8 Foot Sativa - Chelsea Smile tab

  This is the inTro / Chorus for chelsea smile from season for assault.
  Will post the whole song once i finish figuring it out
  Cheers guy hope ya enjoy
  BTW this is exact im good mates with the band. :-)


c#|---------------------------------------------------------------------|
G#|---------------------------------------------------------------------| 
E |------------------7/-9---9--9/10--10---------------------------------| 
B |--------------------------------------------7------------------------| 
F#|-0---000---0-0-0--5/-7---7--7/8----8--8-888---10-8--7-8-10-----------| 
B |-0---000---0-0-0----------------------8-888------------------7-8-10--| 
    .   ...   . . .                      . ...
[ Tab from: http://www.guitaretab.com/numeric/8-foot-sativa/73826.html ]
c#|-----------------------------------------------------------------------| 
G#|-----------------------------------------------------------------------| 
E |------------------7/-9---9--9/10--10-----------------------------------| 
B |--------------------------------------------7--------------------------| 
F#|-0---000---0-0-0--5/-7---7--7/8---8---8-888---10-8---------------------| 
B |-0---000---0-0-0----------------------8-888---------5--7-7--10--11-11--| 
    .   ...   . . .                      . ...

c#|---------------------------------------------------------------------|
G#|---------------------------------------------------------------------| 
E |------------------7/-9---9--9/10--10---------------------------------| 
B |--------------------------------------------7------------------------| 
F#|-0---000---0-0-0--5/-7---7--7/8----8--8-888---10-8--7-8-10-----------| 
B |-0---000---0-0-0----------------------8-888------------------7-8-10--| 
    .   ...   . . .                      . ...

c#|----------------------------------------------------------------------| 
G#|----------------------------------------------------------------------| 
E |-------------------7/9---9---9/10--10---------------------------------| 
B |---------------------------------------7-----7------------------------| 
F#|-0--000---0-0-0----5/7---7---7/8----8-----------10-8--7-------7-8-10--| 
B |-0--000---0-0-0--------------------------8-8------------10-10---------|
    .  ...   . . .                          . .            .  .
  
Related for Chelsea Smile tab
Chelsea Smile chords by 8 Foot Sativa