Song name
# A B C D E F G H I J K L M N O P Q R S T U V W X Y Z

Oar - Untitled tab

Oar
Untitled


Lead
Solo


|-------------------10---------------------------------|
|--/8~-----8-10b-------10b--8h10-----/8-8----/8-8------|
|--------9-----------------------7--------9-------9----|
|------------------------------------------------------|
|------------------------------------------------------|
|------------------------------------------------------|

|-----------10/12---10-8-7------------------------------|
|-10b-10b-8-----------------8h10------------------------|
|---------------------------------7---------------------|
|-------------------------------------------------------|
|-------------------------------------------------------|
|-------------------------------------------------------|

Verse/Chorus

e---7---5---3---3---8----7---5---5---|
b---8---7---3---3---8----8---7---7---|
g---9---7---4---4---9----9---7---7---|
d---9---7---5---5---10---9---7---7---|
a---7---5---5---5---10---7---5---5---|
E---7---5---3---3---8----7---5---5---|


And I know.......I know.....

e---3---8----7---5---|
b---3---8----8---7---|
g---4---9----9---7---|
d---5---10---9---7---|
a---5---10---7---5---|
E---3---8----7---5---|


joshpwc@yahoo.com
oarsa.org
Tap to rate this tab
# A B C D E F G H I J K L M N O P Q R S T U V W X Y Z