Song name
# A B C D E F G H I J K L M N O P Q R S T U V W X Y Z

Oasis - Columbia tab

#----------------------------------PLEASE NOTE---------------------------------#
#This file is the author's own work and represents their interpretation of the #
#song. You may only use this file for private study, scholarship, or research. #
#------------------------------------------------------------------------------#

COLUMBIA
As recorded by Oasis
(From the 1994 Album DEFINITELY MAYBE)

Transcribed by OasisFan
	

Words and Music by Noel Gallagher

Gtr I (E A D G B E) - 'Noel (Guitar)'
Gtr II (E A D G B E) - 'Liam (Organ)'
Gtr III (E A D G B E) - 'Bonehead (Guitar)'

 Intro
  Q=100
            A                                   D          C
 4/4
  Gtr I
  H    Q  E S S   W          +H     +Q.   S S   H    +Q.   S S
|-----------0-0-|-0--------|-(0)----(0)---0-0-|-2----(2)---0-0---|
|-----------2-2-|-2--------|-(2)----(2)---2-2-|-3----(3)---1-1---|
|-----------2-2-|-2--------|-(2)----(2)---2-2-|-2----(2)---0-0---|
|-----------2-2-|-2--------|-(2)----(2)---2-2-|-0----(0)---2-2---|
|-----------0-0-|-0--------|-(0)----(0)---0-0-|------------3-3---|
|---------------|----------|------------------|------------------|


             A                                   D          C
  H    +Q.   S S   W          +H     +Q.   S S   H    +Q.   S S
|-0----(0)---0-0-|-0--------|-(0)----(0)---0-0-|-2----(2)---0-0--|
|-1----(1)---2-2-|-2--------|-(2)----(2)---2-2-|-3----(3)---1-1--|
|-0----(0)---2-2-|-2--------|-(2)----(2)---2-2-|-2----(2)---0-0--|
|-2----(2)---2-2-|-2--------|-(2)----(2)---2-2-|-0----(0)---2-2--|
|-3----(3)---0-0-|-0--------|-(0)----(0)---0-0-|------------3-3--|
|----------------|----------|------------------|-----------------|


                A
  H    +Q.    S S   Q  Q  +H
|-0----(0)--------|--------------|
|-1----(1)--------|--------------|
|-0----(0)--------|--------------|
|-2----(2)----5-5-|-7--7--(7)----|
|-3----(3)--------|--------------|
|-----------------|--------------|
|
| Gtr III
| H     Q   E S S   W
|-------------0-0-|-0------------|
|-------------2-2-|-2------------|
|-------------2-2-|-2------------|
|-------------2-2-|-2------------|
|-------------0-0-|-0------------|
|-----------------|--------------|


                              D                 C
   E  S S S E S +E  E E E     E E +H        S S E
|---------------------------|-----------------------|
|---------------------------|---------------5---5---|
|---------5h7-7-(7)-5-------|-5-------------5h7-5---|
|--7--5h7-------------5h7---|---7-(7)---------------|
|---------------------------|-----------------------|
|---------------------------|-----------------------|
|
| +H            +Q.     S S   H        +Q.      S S
|-(0)-----------(0)-----0-0-|-2--------(2)------0-0-|
|-(2)-----------(2)-----2-2-|-3--------(3)------1-1-|
|-(2)-----------(2)-----2-2-|-2--------(2)------0-0-|
|-(2)-----------(2)-----2-2-|-0--------(0)------2-2-|
|-(0)-----------(0)-----0-0-|-------------------3-3-|
|---------------------------|-----------------------|


                         A
                               ~
  +H     +E  S S S   +S  E     W           E  S S S E S +E  E E E
|----------------------------|----------|----------------------------|
|-(5)----(5)-----------------|----------|----------------------------|
|-(5)----(5)-----7b8r(7)-7---|----------|---------5h7-7-(7)-5--------|
|------------5h7-------------|-7--------|--7--5h7-------------5h7----|
|----------------------------|----------|----------------------------|
|----------------------------|----------|----------------------------|
|
|  H     +Q.             S S   W          +H            +Q.     S S
|--0-----(0)-------------0-0-|-0--------|-(0)-----------(0)-----0-0--|
|--1-----(1)-------------2-2-|-2--------|-(2)-----------(2)-----2-2--|
|--0-----(0)-------------2-2-|-2--------|-(2)-----------(2)-----2-2--|
|--2-----(2)-------------2-2-|-2--------|-(2)-----------(2)-----2-2--|
|--3-----(3)-------------0-0-|-0--------|-(0)-----------(0)-----0-0--|
|----------------------------|----------|----------------------------|


  D                 C                   A
  E E +H        S S E     +H.         E E
|-----------------------|-------------------|
|---------------5---5---|-(5)---------5-----|
|-5-------------5h7-5---|-(5)---------5-7---|
|---7-(7)---------------|---------------7---|
|-----------------------|-------------------|
|-----------------------|-------------------|
|
| Gtr II
| W                        W
|-----------------------|-------------------|
|-----------------------|-------------------|
|-----------------------|-------------------|
|-----------------------|-------------------|
|-----------------------|-------------------|
|-----------------------|-------------------|
|
| Gtr III
| H        +Q.      S S    H     +Q.    S S
|-2--------(2)------0-0-|--0-----(0)----0-0-|
|-3--------(3)------1-1-|--1-----(1)----2-2-|
|-2--------(2)------0-0-|--0-----(0)----2-2-|
|-0--------(0)------2-2-|--2-----(2)----2-2-|
|-------------------3-3-|--3-----(3)----0-0-|
|-----------------------|-------------------|


 1st Verse
  Q    E.   S  Q   Q     Q   E.   S  Q   E S S
|-0----0----0--0---0---|-0---0----0--0---0-0-0-|
|-2----2----2--2---2---|-2---2----2--2---2-2-2-|
|-2----2----2--2---2---|-2---2----2--2---2-2-2-|
|-2----2----2--2---2---|-2---2----2--2---2-2-2-|
|-0----0----0--0---0---|-0---0----0--0---0-0-0-|
|----------------------|-----------------------|
|
| E E +E  E   +Q   E E   E E E  E   +Q   Q
|----------------------|-----------------------|
|----------------------|-----------------------|
|-0-2-(2)-2---(2)----2-|-4-2-4--2---(2)--------|
|----------------------|-----------------------|
|----------------------|-----------------------|
|----------------------|-----------------------|
|
| Q    E.   S  Q   Q     Q   E.   S  Q   E S S
|-0----0----0--0---0---|-0---0----0--0---0-0-0-|
|-2----2----2--2---2---|-2---2----2--2---2-2-2-|
|-2----2----2--2---2---|-2---2----2--2---2-2-2-|
|-2----2----2--2---2---|-2---2----2--2---2-2-2-|
|-0----0----0--0---0---|-0---0----0--0---0-0-0-|
|----------------------|-----------------------|


  D/A                 C                       A
  Gtrs I, III
  Q   E S S  Q     E  S S   Q   E S S  Q    E S S
|-2---2-2-2--2-----2--0-0-|-0---0-0-0--0----0-0-0-|
|-3---3-3-3--3-----3--1-1-|-1---1-1-1--1----1-2-2-|
|-2---2-2-2--2-----2--0-0-|-0---0-0-0--0----0-2-2-|
|-0---0-0-0--0-----0--2-2-|-2---2-2-2--2----2-2-2-|
|-0---0-0-0--0-----0--3-3-|-3---3-3-3--3----3-0-0-|
|-------------------------|-----------------------|
|
| E E E E   +E  E +E  E     E E E E   +E  E E E
|-------------------------|-----------------------|
|-------------------------|-------1---(1)---------|
|---2-2-2---(2)-2-(2)-----|-0-2-2---------0-2-----|
|-4-----------------------|-----------------------|
|-------------------------|-----------------------|
|-------------------------|-----------------------|


  Q    E.   S  Q   Q     Q   E.   S  Q   E S S
|-0----0----0--0---0---|-0---0----0--0---0-0-0---|
|-2----2----2--2---2---|-2---2----2--2---2-2-2---|
|-2----2----2--2---2---|-2---2----2--2---2-2-2---|
|-2----2----2--2---2---|-2---2----2--2---2-2-2---|
|-0----0----0--0---0---|-0---0----0--0---0-0-0---|
|----------------------|-------------------------|
|
| E E +E  E   +Q   E E   E E E  E   +Q   Q
|----------------------|-------------------------|
|----------------------|-------------------------|
|-0-2-(2)-2---(2)----2-|-4-2-4--2---(2)----------|
|----------------------|-------------------------|
|----------------------|-------------------------|
|----------------------|-------------------------|


                                                      Chorus
  D/A                 C                     CaddA1     A
  Gtr I
  Q   E S S  Q     E  S S   Q   E S S +S  S E E S S    Q  E. S Q   Q
|-2---2-2-2--2-----2--0-0-|-0---0-0-0-(0)-0-1-1-0-0-||-0--0--0-0---0---|
|-3---3-3-3--3-----3--1-1-|-1---1-1-1-(1)-1-1-1-2-2-||-2--2--2-2---2---|
|-2---2-2-2--2-----2--0-0-|-0---0-0-0-(0)-0-----2-2-||-2--2--2-2---2---|
|-0---0-0-0--0-----0--2-2-|-2---2-2-2-(2)-2-2-2-2-2-||-2--2--2-2---2---|
|-0---0-0-0--0-----0--3-3-|-3---3-3-3-(3)-3-3-3-0-0-||-0--0--0-0---0---|
|-------------------------|-------------------------||-----------------|
|
| E E E E   +E  E +E  E     E E E E   +E    E E E      Q  Q    E E E E
|-------------------------|-------------------------||-----------------|
|-------------------------|-------1---(1)-----------||---------1-------|
|---2-2-2---(2)-2-(2)-----|-0-2-2-----------0-2-0---||-0--2------2-2-0-|
|-4-----------------------|-------------------------||-----------------|
|-------------------------|-------------------------||-----------------|
|-------------------------|-------------------------||-----------------|
|
| Gtr III
| Q   E S S  Q     E  S S   Q   E S S +S  S E E S S    Q  E. S Q   Q
|-2---2-2-2--2-----2--0-0-|-0---0-0-0-(0)-0-0-0-0-0-||-0--0--0-0---0---|
|-3---3-3-3--3-----3--1-1-|-1---1-1-1-(1)-1-1-1-2-2-||-2--2--2-2---2---|
|-2---2-2-2--2-----2--0-0-|-0---0-0-0-(0)-0-0-0-2-2-||-2--2--2-2---2---|
|-0---0-0-0--0-----0--2-2-|-2---2-2-2-(2)-2-2-2-2-2-||-2--2--2-2---2---|
|-0---0-0-0--0-----0--3-3-|-3---3-3-3-(3)-3-3-3-0-0-||-0--0--0-0---0---|
|-------------------------|-------------------------||-----------------|


                            D/A            C
  Gtrs I, III
   Q     E.   S Q   E S S   Q  E S S Q   E S S
|--0-----0----0-0---0-0-0-|-2--2-2-2-2---2-0-0-|
|--2-----2----2-2---2-2-2-|-3--3-3-3-3---3-1-1-|
|--2-----2----2-2---2-2-2-|-2--2-2-2-2---2-0-0-|
|--2-----2----2-2---2-2-2-|-0--0-0-0-0---0-2-2-|
|--0-----0----0-0---0-0-0-|-0--0-0-0-0---0-3-3-|
|-------------------------|--------------------|
|
| +E  E +E  E   E E E E     Q  E E   E E E E
|-------------------------|--------------------|
|-----------1-------------|----------1---------|
|-(0)-2-(2)-----2-2-2-2---|-0--2-------2-2-0---|
|-------------------------|--------------------|
|-------------------------|--------------------|
|-------------------------|--------------------|


                        A
   Q     E  S S  Q    E S S   Q  E. S Q   Q
|--0-----0--0-0--0----0-0-0-|-0--0--0-0---0---|
|--1-----1--1-1--1----1-2-2-|-2--2--2-2---2---|
|--0-----0--0-0--0----0-2-2-|-2--2--2-2---2---|
|--2-----2--2-2--2----2-2-2-|-2--2--2-2---2---|
|--3-----3--3-3--3----3-0-0-|-0--0--0-0---0---|
|---------------------------|-----------------|
|
| +E  E +E  E   +E  E Q       Q  Q    E E E E
|---------------------------|-----------------|
|-----------1---(1)---------|---------1-------|
|-(0)-2-(2)---------0-2-----|-0--2------2-2-0-|
|---------------------------|-----------------|
|---------------------------|-----------------|
|---------------------------|-----------------|


                            D/A            C                           A
   Q     E.   S Q   E S S   Q  E S S Q   E S S    Q     E  S S  Q    E S S
|--0-----0----0-0---0-0-0-|-2--2-2-2-2---2-0-0-|--0-----0--0-0--0----0-0-0--|
|--2-----2----2-2---2-2-2-|-3--3-3-3-3---3-1-1-|--1-----1--1-1--1----1-2-2--|
|--2-----2----2-2---2-2-2-|-2--2-2-2-2---2-0-0-|--0-----0--0-0--0----0-2-2--|
|--2-----2----2-2---2-2-2-|-0--0-0-0-0---0-2-2-|--2-----2--2-2--2----2-2-2--|
|--0-----0----0-0---0-0-0-|-0--0-0-0-0---0-3-3-|--3-----3--3-3--3----3-0-0--|
|-------------------------|--------------------|----------------------------|
|
| +E  E +E  E   E E E E     Q  E E   E E E E     +E  E +E  E   +E  E Q
|-------------------------|--------------------|----------------------------|
|-----------1-------------|----------1---------|-----------1---(1)----------|
|-(0)-2-(2)-----2-2-2-2---|-0--2-------2-2-0---|-(0)-2-(2)---------0-2------|
|-------------------------|--------------------|----------------------------|
|-------------------------|--------------------|----------------------------|
|-------------------------|--------------------|----------------------------|


 Interlude
  Gtr I
  E. E.    Q     E E E   E. E.    Q     E E E
|----------------------|------------------------|
|----------------------|------------------------|
|-7--------6-----------|-7--------6-------------|
|----7-----------7-5h7-|----7-----------7-5h7---|
|----------------------|------------------------|
|----------------------|------------------------|
|
| Gtr III
| Q     E.   S Q   Q     Q     E.   S Q   E S S
|-0-----0----0-0---0---|-0-----0----0-0---0-0-0-|
|-2-----2----2-2---2---|-2-----2----2-2---2-2-2-|
|-2-----2----2-2---2---|-2-----2----2-2---2-2-2-|
|-2-----2----2-2---2---|-2-----2----2-2---2-2-2-|
|-0-----0----0-0---0---|-0-----0----0-0---0-0-0-|
|----------------------|------------------------|


  D/A               C                       A
  E. E.   Q     E E E     E. E.   Q     E E E
|-----------------------|-------------------------|
|-----------------------|-------------------------|
|-7-------6-------------|-7-------5---------------|
|----7----------7-5h7---|----7----------7-5h7-----|
|-----------------------|-------------------------|
|-----------------------|-------------------------|
|
| Q     E S S Q   E S S   Q     E S S Q   E S S
|-2-----2-2-2-2---2-0-0-|-0-----0-0-0-0---0-0-0---|
|-3-----3-3-3-3---3-1-1-|-1-----1-1-1-1---1-2-2---|
|-2-----2-2-2-2---2-0-0-|-0-----0-0-0-0---0-2-2---|
|-0-----0-0-0-0---0-2-2-|-2-----2-2-2-2---2-2-2---|
|-0-----0-0-0-0---0-3-3-|-3-----3-3-3-3---3-0-0---|
|-----------------------|-------------------------|


  E. E.    Q     E E E   E. E.    Q     E E E
|----------------------|------------------------|
|----------------------|------------------------|
|-7--------6-----------|-7--------6-------------|
|----7-----------7-5h7-|----7-----------7-5h7---|
|----------------------|------------------------|
|----------------------|------------------------|
|
| Q     E.   S Q   Q     Q     E.   S Q   E S S
|-0-----0----0-0---0---|-0-----0----0-0---0-0-0-|
|-2-----2----2-2---2---|-2-----2----2-2---2-2-2-|
|-2-----2----2-2---2---|-2-----2----2-2---2-2-2-|
|-2-----2----2-2---2---|-2-----2----2-2---2-2-2-|
|-0-----0----0-0---0---|-0-----0----0-0---0-0-0-|
|----------------------|------------------------|


  D/A               C                       A
  E. E.   Q     E E E     E. E.   Q     E E E
|-----------------------|-------------------------|
|-----------------------|-------------------------|
|-7-------6-------------|-7-------5---------------|
|----7----------7-5h7---|----7----------7-5h7-----|
|-----------------------|-------------------------|
|-----------------------|-------------------------|
|
| Q     E S S Q   E S S   Q     E S S Q   E S S
|-2-----2-2-2-2---2-0-0-|-0-----0-0-0-0---0-0-0---|
|-3-----3-3-3-3---3-1-1-|-1-----1-1-1-1---1-2-2---|
|-2-----2-2-2-2---2-0-0-|-0-----0-0-0-0---0-2-2---|
|-0-----0-0-0-0---0-2-2-|-2-----2-2-2-2---2-2-2---|
|-0-----0-0-0-0---0-3-3-|-3-----3-3-3-3---3-0-0---|
|-----------------------|-------------------------|


 2nd Verse
  Gtrs I, III
  Q    E.   S  Q   Q     Q   E.   S  Q   E S S
|-0----0----0--0---0---|-0---0----0--0---0-0-0-|
|-2----2----2--2---2---|-2---2----2--2---2-2-2-|
|-2----2----2--2---2---|-2---2----2--2---2-2-2-|
|-2----2----2--2---2---|-2---2----2--2---2-2-2-|
|-0----0----0--0---0---|-0---0----0--0---0-0-0-|
|----------------------|-----------------------|
|
| Gtr II
| E E +E  E   +Q   E E   E E E  E   +Q   E E
|----------------------|-----------------------|
|----------------------|-----------------------|
|-0-2-(2)-2---(2)----2-|-4-2-4--2---(2)--2-2---|
|----------------------|-----------------------|
|----------------------|-----------------------|
|----------------------|-----------------------|


  D/A                C                       A
  Q    E  S S  Q   E S S   Q   E S S  Q    E S S
|-2----2--2-2--2---2-0-0-|-0---0-0-0--0----0-0-0---|
|-3----3--3-3--3---3-1-1-|-1---1-1-1--1----1-2-2---|
|-2----2--2-2--2---2-0-0-|-0---0-0-0--0----0-2-2---|
|-0----0--0-0--0---0-2-2-|-2---2-2-2--2----2-2-2---|
|-0----0--0-0--0---0-3-3-|-3---3-3-3--3----3-0-0---|
|------------------------|-------------------------|
|
| E E +E  E   +Q   E E     E E E E   +E  E Q
|------------------------|-------------------------|
|------------------------|-------------------------|
|---2-(2)-2---(2)--2-2---|-4-2-4-2---(2)-2---------|
|-4----------------------|-------------------------|
|------------------------|-------------------------|
|------------------------|-------------------------|


                                                 D/A                C
  Q    E.   S  Q   Q     Q   E.   S  Q   E S S   Q    E  S S  Q   E S S
|-0----0----0--0---0---|-0---0----0--0---0-0-0-|-2----2--2-2--2---2-0-0-|
|-2----2----2--2---2---|-2---2----2--2---2-2-2-|-3----3--3-3--3---3-1-1-|
|-2----2----2--2---2---|-2---2----2--2---2-2-2-|-2----2--2-2--2---2-0-0-|
|-2----2----2--2---2---|-2---2----2--2---2-2-2-|-0----0--0-0--0---0-2-2-|
|-0----0----0--0---0---|-0---0----0--0---0-0-0-|-0----0--0-0--0---0-3-3-|
|----------------------|-----------------------|------------------------|
|
| E E +E  E   +Q   E E   E E E  E   +Q   E E     E E +E  E   +Q   E E
|----------------------|-----------------------|------------------------|
|----------------------|-----------------------|------------------------|
|-0-2-(2)-2---(2)----2-|-4-2-4--2---(2)--2-2---|---2-(2)-2---(2)--2-2---|
|----------------------|-----------------------|-4----------------------|
|----------------------|-----------------------|------------------------|
|----------------------|-----------------------|------------------------|


                            Chorus
                  CaddA1
  Q   E S S +S  S E E S S    Q  E. S Q   Q      Q     E.   S Q   E S S
|-0---0-0-0-(0)-0-1-1-0-0-||-0--0--0-0---0---|--0-----0----0-0---0-0-0-|
|-1---1-1-1-(1)-1-1-1-2-2-||-2--2--2-2---2---|--2-----2----2-2---2-2-2-|
|-0---0-0-0-(0)-0-----2-2-||-2--2--2-2---2---|--2-----2----2-2---2-2-2-|
|-2---2-2-2-(2)-2-2-2-2-2-||-2--2--2-2---2---|--2-----2----2-2---2-2-2-|
|-3---3-3-3-(3)-3-3-3-0-0-||-0--0--0-0---0---|--0-----0----0-0---0-0-0-|
|-------------------------||-----------------|-------------------------|
|
| E E E E   +E    E E E      Q  Q    E E E E   +E  E +E  E   E E E E
|-------------------------||-----------------|-------------------------|
|-------------------------||---------1-------|-----------1-------------|
|-4-2-4-2---(2)---2---2---||-0--2------2-2-0-|-(0)-2-(2)-----2-2-2-2---|
|-------------------------||-----------------|-------------------------|
|-------------------------||-----------------|-------------------------|
|-------------------------||-----------------|-------------------------|


                 C                           A
  Q  E S S Q   E S S    Q     E  S S  Q    E S S
|-2--2-2-2-2---2-0-0-|--0-----0--0-0--0----0-0-0-|
|-3--3-3-3-3---3-1-1-|--1-----1--1-1--1----1-2-2-|
|-2--2-2-2-2---2-0-0-|--0-----0--0-0--0----0-2-2-|
|-0--0-0-0-0---0-2-2-|--2-----2--2-2--2----2-2-2-|
|-0--0-0-0-0---0-3-3-|--3-----3--3-3--3----3-0-0-|
|--------------------|---------------------------|
|
| Q  E E   E E E E     +E  E +E  E   +E  E Q
|--------------------|---------------------------|
|----------1---------|-----------1---(1)---------|
|-0--2-------2-2-0---|-(0)-2-(2)---------0-2-----|
|--------------------|---------------------------|
|--------------------|---------------------------|
|--------------------|---------------------------|


  Q  E. S Q   Q      Q     E.   S Q   E S S
|-0--0--0-0---0---|--0-----0----0-0---0-0-0-|
|-2--2--2-2---2---|--2-----2----2-2---2-2-2-|
|-2--2--2-2---2---|--2-----2----2-2---2-2-2-|
|-2--2--2-2---2---|--2-----2----2-2---2-2-2-|
|-0--0--0-0---0---|--0-----0----0-0---0-0-0-|
|-----------------|-------------------------|
|
| Q  Q    E E E E   +E  E +E  E   E E E E
|-----------------|-------------------------|
|---------1-------|-----------1-------------|
|-0--2------2-2-0-|-(0)-2-(2)-----2-2-2-2---|
|-----------------|-------------------------|
|-----------------|-------------------------|
|-----------------|-------------------------|


                                                   Interlude
  D/A            C                           A
  Gtr I
  Q  E S S Q   E S S    Q     E  S S  Q    E S S    E. E.    Q     E E E
|-2--2-2-2-2---2-0-0-|--0-----0--0-0--0----0-0-0-||----------------------|
|-3--3-3-3-3---3-1-1-|--1-----1--1-1--1----1-2-2-||----------------------|
|-2--2-2-2-2---2-0-0-|--0-----0--0-0--0----0-2-2-||-7--------6-----------|
|-0--0-0-0-0---0-2-2-|--2-----2--2-2--2----2-2-2-||----7-----------7-5h7-|
|-0--0-0-0-0---0-3-3-|--3-----3--3-3--3----3-0-0-||----------------------|
|--------------------|---------------------------||----------------------|
|
| Q  E E   E E E E     +E  E +E  E   +E  E Q        W
|--------------------|---------------------------||----------------------|
|----------1---------|-----------1---(1)---------||----------------------|
|-0--2-------2-2-0---|-(0)-2-(2)---------0-2-----||----------------------|
|--------------------|---------------------------||----------------------|
|--------------------|---------------------------||----------------------|
|--------------------|---------------------------||----------------------|
|
| Gtr III
| Q  E S S Q   E S S    Q     E  S S  Q    E S S    Q     E.   S Q   Q
|-2--2-2-2-2---2-0-0-|--0-----0--0-0--0----0-0-0-||-0-----0----0-0---0---|
|-3--3-3-3-3---3-1-1-|--1-----1--1-1--1----1-2-2-||-2-----2----2-2---2---|
|-2--2-2-2-2---2-0-0-|--0-----0--0-0--0----0-2-2-||-2-----2----2-2---2---|
|-0--0-0-0-0---0-2-2-|--2-----2--2-2--2----2-2-2-||-2-----2----2-2---2---|
|-0--0-0-0-0---0-3-3-|--3-----3--3-3--3----3-0-0-||-0-----0----0-0---0---|
|--------------------|---------------------------||----------------------|


                           D/A                     C
  E. E.    Q     E E E     E.   E.   Q       E  E  E
|------------------------|-----------------------------|
|------------------------|-----------------------------|
|-7--------6-------------|-7---------6-----------------|
|----7-----------7-5h7---|------7------------7--5h=7---|
|------------------------|-----------------------------|
|------------------------|-----------------------------|
|
| W                        E  E    E E   +E  E +E  E
|------------------------|-----------------------------|
|------------------------|-----------------------------|
|------------------------|-0--2----2-2---(2)-2-(2)-----|
|------------------------|-----------------------------|
|------------------------|-----------------------------|
|------------------------|-----------------------------|
|
| Q     E.   S Q   E S S   Q       E S S  Q     E  S S
|-0-----0----0-0---0-0-0-|-2-------2-2-2--2-----2--0-0-|
|-2-----2----2-2---2-2-2-|-3-------3-3-3--3-----3--1-1-|
|-2-----2----2-2---2-2-2-|-2-------2-2-2--2-----2--0-0-|
|-2-----2----2-2---2-2-2-|-0-------0-0-0--0-----0--2-2-|
|-0-----0----0-0---0-0-0-|-0-------0-0-0--0-----0--3-3-|
|------------------------|-----------------------------|


                        A
  E.   E.   Q       E E E     E. E.    Q     E E E
|---------------------------|----------------------|
|---------------------------|----------------------|
|-7---------5---------------|-7--------6-----------|
|------7------------7-5h7---|----7-----------7-5h7-|
|---------------------------|----------------------|
|---------------------------|----------------------|
|
| E  E    E E   +E  E Q       W
|---------------------------|----------------------|
|-----------1---(1)---------|----------------------|
|-0--2----2---------0-2-----|----------------------|
|---------------------------|----------------------|
|---------------------------|----------------------|
|---------------------------|----------------------|
|
| Q       E S S  Q    E S S   Q     E.   S Q   Q
|-0-------0-0-0--0----0-0-0-|-0-----0----0-0---0---|
|-1-------1-1-1--1----1-2-2-|-2-----2----2-2---2---|
|-0-------0-0-0--0----0-2-2-|-2-----2----2-2---2---|
|-2-------2-2-2--2----2-2-2-|-2-----2----2-2---2---|
|-3-------3-3-3--3----3-0-0-|-0-----0----0-0---0---|
|---------------------------|----------------------|


                           D/A                     C
  E. E.    Q     E E E     E.   E.   Q       E  E  E
|------------------------|-----------------------------|
|------------------------|-----------------------------|
|-7--------6-------------|-7---------6-----------------|
|----7-----------7-5h7---|------7------------7--5h=7---|
|------------------------|-----------------------------|
|------------------------|-----------------------------|
|
| W                        E  E    E E   +E  E +E  E
|------------------------|-----------------------------|
|------------------------|-----------------------------|
|------------------------|-0--2----2-2---(2)-2-(2)-----|
|------------------------|-----------------------------|
|------------------------|-----------------------------|
|------------------------|-----------------------------|
|
| Q     E.   S Q   E S S   Q       E S S  Q     E  S S
|-0-----0----0-0---0-0-0-|-2-------2-2-2--2-----2--0-0-|
|-2-----2----2-2---2-2-2-|-3-------3-3-3--3-----3--1-1-|
|-2-----2----2-2---2-2-2-|-2-------2-2-2--2-----2--0-0-|
|-2-----2----2-2---2-2-2-|-0-------0-0-0--0-----0--2-2-|
|-0-----0----0-0---0-0-0-|-0-------0-0-0--0-----0--3-3-|
|------------------------|-----------------------------|


                        A
  E.   E.   Q       E E E
|----------------------------|
|----------------------------|
|-7---------5----------------|
|------7------------7-5h7----|
|----------------------------|
|----------------------------|
|
| E  E    E E   +E  E Q
|----------------------------|
|-----------1---(1)----------|
|-0--2----2---------0-2------|
|----------------------------|
|----------------------------|
|----------------------------|
|
| Q       E S S  Q    E S S
|-0-------0-0-0--0----0-0-0--|
|-1-------1-1-1--1----1-2-2--|
|-0-------0-0-0--0----0-2-2--|
|-2-------2-2-2--2----2-2-2--|
|-3-------3-3-3--3----3-0-0--|
|----------------------------|


 Guitar Solo
   E  S  S  E   S  S  +S   S  E  E  S  S
|----------------------------------------|
|-17-17-17-17--17-17-(17)-17-17-17-17-17-|
|-19-19-19-19--19-19-(19)-19-19-19-19-19-|
|----------------------------------------|
|----------------------------------------|
|----------------------------------------|
|
|  W
|----------------------------------------|
|----------------------------------------|
|----------------------------------------|
|----------------------------------------|
|----------------------------------------|
|----------------------------------------|
|
|  Q        E.     S   Q         Q
|--0--------0------0---0---------0-------|
|--2--------2------2---2---------2-------|
|--2--------2------2---2---------2-------|
|--2--------2------2---2---------2-------|
|--0--------0------0---0---------0-------|
|----------------------------------------|


                                           D/A                              C
   E  S  S  E   S  S  +S   S  E  E  S  S    E  S  S  E  S  S  +S   S  E  E   S  S
|----------------------------------------|-----------------------------------------|
|-17-17-17-17--17-17-(17)-17-17-17-17-17-|-17-17-17-17-17-17-(17)-17-17-17--17-17--|
|-19-19-19-19--19-19-(19)-19-19-19-19-19-|-19-19-19-19-19-19-(19)-19-19-19--19-19--|
|----------------------------------------|-----------------------------------------|
|----------------------------------------|-----------------------------------------|
|----------------------------------------|-----------------------------------------|
|
|  W                                        E  E     E  E     +E      E +E   E
|----------------------------------------|-----------------------------------------|
|----------------------------------------|-----------------------------------------|
|----------------------------------------|--0--2-----2--2-----(2)-----2-(2)--2-----|
|----------------------------------------|-----------------------------------------|
|----------------------------------------|-----------------------------------------|
|----------------------------------------|-----------------------------------------|
|
|  Q        E.     S   Q         E  S  S    Q        E  S  S   Q         E   S  S
|--0--------0------0---0---------0--0--0-|--2--------2--2--2---2---------2---0--0--|
|--2--------2------2---2---------2--2--2-|--3--------3--3--3---3---------3---1--1--|
|--2--------2------2---2---------2--2--2-|--2--------2--2--2---2---------2---0--0--|
|--2--------2------2---2---------2--2--2-|--0--------0--0--0---0---------0---2--2--|
|--0--------0------0---0---------0--0--0-|--0--------0--0--0---0---------0---3--3--|
|----------------------------------------|-----------------------------------------|


   E  S  S  E  S  S  +S   S  E  E   S  S
|----------------------------------------|
|-17-17-17-17-17-17-(17)-17-17-17--17-17-|
|-19-19-19-19-19-19-(19)-19-19-19--19-19-|
|----------------------------------------|
|----------------------------------------|
|----------------------------------------|
|
|  E  E     E  E     +E      E +E   E
|----------------------------------------|
|----------------------------------------|
|--4--2-----0--2-----(2)-----2-(2)-------|
|----------------------------------------|
|----------------------------------------|
|----------------------------------------|
|
|  Q        E  S  S   Q         E   S  S
|--0--------0--0--0---0---------0---0--0-|
|--1--------1--1--1---1---------1---2--2-|
|--0--------0--0--0---0---------0---2--2-|
|--2--------2--2--2---2---------2---2--2-|
|--3--------3--3--3---3---------3---0--0-|
|----------------------------------------|


  A
   E  S  S  E   S  S  +S   S  E  E  S  S    E  S  S  E   S  S  +S   S  E  E  S  S
|----------------------------------------|-----------------------------------------|
|-17-17-17-17--17-17-(17)-17-17-17-17-17-|-17-17-17-17--17-17-(17)-17-17-17-17-17--|
|-19-19-19-19--19-19-(19)-19-19-19-19-19-|-19-19-19-19--19-19-(19)-19-19-19-19-19--|
|----------------------------------------|-----------------------------------------|
|----------------------------------------|-----------------------------------------|
|----------------------------------------|-----------------------------------------|
|
|  W                                        W
|----------------------------------------|-----------------------------------------|
|----------------------------------------|-----------------------------------------|
|----------------------------------------|-----------------------------------------|
|----------------------------------------|-----------------------------------------|
|----------------------------------------|-----------------------------------------|
|----------------------------------------|-----------------------------------------|
|
|  Q        E.     S   Q         Q          Q        E.     S   Q         E  S  S
|--0--------0------0---0---------0-------|--0--------0------0---0---------0--0--0--|
|--2--------2------2---2---------2-------|--2--------2------2---2---------2--2--2--|
|--2--------2------2---2---------2-------|--2--------2------2---2---------2--2--2--|
|--2--------2------2---2---------2-------|--2--------2------2---2---------2--2--2--|
|--0--------0------0---0---------0-------|--0--------0------0---0---------0--0--0--|
|----------------------------------------|-----------------------------------------|


  D/A                              C
   E  S  S  E  S  S  +S   S  E  E   S  S
|----------------------------------------|
|-17-17-17-17-17-17-(17)-17-17-17--17-17-|
|-19-19-19-19-19-19-(19)-19-19-19--19-19-|
|----------------------------------------|
|----------------------------------------|
|----------------------------------------|
|
|  E  E     E  E     +E      E +E   E
|----------------------------------------|
|----------------------------------------|
|--0--2-----2--2-----(2)-----2-(2)--2----|
|----------------------------------------|
|----------------------------------------|
|----------------------------------------|
|
|  Q        E  S  S   Q         E   S  S
|--2--------2--2--2---2---------2---0--0-|
|--3--------3--3--3---3---------3---1--1-|
|--2--------2--2--2---2---------2---0--0-|
|--0--------0--0--0---0---------0---2--2-|
|--0--------0--0--0---0---------0---3--3-|
|----------------------------------------|


                                   A
   E  S  S  E  S  S  +S   S  E  E   S  S   E S S E  S S +S  S S S E S S
|----------------------------------------|------------------------------|
|-17-17-17-17-17-17-(17)-17-17-17--17-17-|------------------------------|
|-19-19-19-19-19-19-(19)-19-19-19--19-19-|------------------------------|
|----------------------------------------|------------------------------|
|----------------------------------------|---0-0-0--0-3-(3)-0-5---3-0-0-|
|----------------------------------------|-3--------------------5-------|
|
|  E  E     E  E     +E      E +E   E      W
|----------------------------------------|------------------------------|
|----------------------------------------|------------------------------|
|--4--2-----0--2-----(2)-----2-(2)-------|------------------------------|
|----------------------------------------|------------------------------|
|----------------------------------------|------------------------------|
|----------------------------------------|------------------------------|
|
|  Q        E  S  S   Q         E   S  S   Q     E.   S  Q        Q
|--0--------0--0--0---0---------0---0--0-|-0-----0----0--0--------0-----|
|--1--------1--1--1---1---------1---2--2-|-2-----2----2--2--------2-----|
|--0--------0--0--0---0---------0---2--2-|-2-----2----2--2--------2-----|
|--2--------2--2--2---2---------2---2--2-|-2-----2----2--2--------2-----|
|--3--------3--3--3---3---------3---0--0-|-0-----0----0--0--------0-----|
|----------------------------------------|------------------------------|


  E S S E  S S +S  S S S E S S
|------------------------------|
|------------------------------|
|------------------------------|
|------------------------------|
|---0-0-0--0-3-(3)-0-5---3-0-0-|
|-3--------------------5-------|
|
| Gtr III
| Q     E.   S  Q        E S S
|-0-----0----0--0--------0-0-0-|
|-2-----2----2--2--------2-2-2-|
|-2-----2----2--2--------2-2-2-|
|-2-----2----2--2--------2-2-2-|
|-0-----0----0--0--------0-0-0-|
|------------------------------|


  Dsus2                   C                        A
  E S S E S S +S  S S S E S S   Q  E S S +S  S E E S S
|-----------------------------|------------------------|
|-----------------------------|------------------------|
|-----------------------------|------------------------|
|-----------------------------|------------------------|
|---0-0-0-0-3-(3)-0-5---3-0-0-|-5--5-5-3-(3)-0---0-0-0-|
|-3-------------------5-------|----------------3-------|
|
| Q     E S S  Q        E S S   Q  E S S  Q      E S S
|-0-----0-0-0--0--------0-0-0-|-0--0-0-0--0------0-0-0-|
|-3-----3-3-3--3--------3-1-1-|-1--1-1-1--1------1-2-2-|
|-2-----2-2-2--2--------2-0-0-|-0--0-0-0--0------0-2-2-|
|-0-----0-0-0--0--------0-2-2-|-2--2-2-2--2------2-2-2-|
|-------------------------3-3-|-3--3-3-3--3------3-0-0-|
|-----------------------------|------------------------|


  E S S E  S S +S  S S S E S S   E S S E  S S +S  S S S E S S
|------------------------------|------------------------------|
|------------------------------|------------------------------|
|------------------------------|------------------------------|
|------------------------------|------------------------------|
|---0-0-0--0-3-(3)-0-5---3-0-0-|---0-0-0--0-3-(3)-0-5---3-0-0-|
|-3--------------------5-------|-3--------------------5-------|
|
| Q     E.   S  Q        Q       Q     E.   S  Q        E S S
|-0-----0----0--0--------0-----|-0-----0----0--0--------0-0-0-|
|-2-----2----2--2--------2-----|-2-----2----2--2--------2-2-2-|
|-2-----2----2--2--------2-----|-2-----2----2--2--------2-2-2-|
|-2-----2----2--2--------2-----|-2-----2----2--2--------2-2-2-|
|-0-----0----0--0--------0-----|-0-----0----0--0--------0-0-0-|
|------------------------------|------------------------------|


                                                         Interlude
  Dsus2                   C                        A
  E S S E S S +S  S S S E S S   Q  E S S +S  S E Q        E. E.    Q     E E E
|-----------------------------|------------------------||----------------------|
|-----------------------------|------------------------||----------------------|
|-----------------------------|------------------------||-7--------6-----------|
|-----------------------------|------------------------||----7-----------7-5h7-|
|---0-0-0-0-3-(3)-0-5---3-0-0-|-5--5-5-3-(3)-0---------||----------------------|
|-3-------------------5-------|----------------3-0-----||----------------------|
|
| Q     E S S  Q        E S S   Q  E S S  Q      E S S    Q     E.   S Q   Q
|-0-----0-0-0--0--------0-0-0-|-0--0-0-0--0------0-0-0-||-0-----0----0-0---0---|
|-3-----3-3-3--3--------3-1-1-|-1--1-1-1--1------1-2-2-||-2-----2----2-2---2---|
|-2-----2-2-2--2--------2-0-0-|-0--0-0-0--0------0-2-2-||-2-----2----2-2---2---|
|-0-----0-0-0--0--------0-2-2-|-2--2-2-2--2------2-2-2-||-2-----2----2-2---2---|
|-------------------------3-3-|-3--3-3-3--3------3-0-0-||-0-----0----0-0---0---|
|-----------------------------|------------------------||----------------------|


                           Dsus2             C
  E. E.    Q     E E E     E. E.   Q     E E E
|------------------------|-----------------------|
|------------------------|-----------------------|
|-7--------6-------------|-7-------6-------------|
|----7-----------7-5h7---|----7----------7-5h7---|
|------------------------|-----------------------|
|------------------------|-----------------------|
|
| Q     E.   S Q   E S S   Q     E S S Q   E S S
|-0-----0----0-0---0-0-0-|-0-----0-0-0-0---0-0-0-|
|-2-----2----2-2---2-2-2-|-3-----3-3-3-3---3-1-1-|
|-2-----2----2-2---2-2-2-|-2-----2-2-2-2---2-0-0-|
|-2-----2----2-2---2-2-2-|-0-----0-0-0-0---0-2-2-|
|-0-----0----0-0---0-0-0-|-------------------3-3-|
|------------------------|-----------------------|


                    A
  E. E.   Q     E E E     E. E.    Q     E E E
|-----------------------|------------------------|
|-----------------------|------------------------|
|-7-------5-------------|-7--------6-------------|
|----7----------7-5h7---|----7-----------7-5h7---|
|-----------------------|------------------------|
|-----------------------|------------------------|
|
| Q     E S S Q   E S S   Q     E.   S Q   Q
|-0-----0-0-0-0---0-0-0-|-0-----0----0-0---0-----|
|-1-----1-1-1-1---1-2-2-|-2-----2----2-2---2-----|
|-0-----0-0-0-0---0-2-2-|-2-----2----2-2---2-----|
|-2-----2-2-2-2---2-2-2-|-2-----2----2-2---2-----|
|-3-----3-3-3-3---3-0-0-|-0-----0----0-0---0-----|
|-----------------------|------------------------|


                           Dsus2             C
  E. E.    Q     E E E     E. E.   Q     E E E
|------------------------|-----------------------|
|------------------------|-----------------------|
|-7--------6-------------|-7-------6-------------|
|----7-----------7-5h7---|----7----------7-5h7---|
|------------------------|-----------------------|
|------------------------|-----------------------|
|
| Q     E.   S Q   E S S   Q     E S S Q   E S S
|-0-----0----0-0---0-0-0-|-0-----0-0-0-0---0-0-0-|
|-2-----2----2-2---2-2-2-|-3-----3-3-3-3---3-1-1-|
|-2-----2----2-2---2-2-2-|-2-----2-2-2-2---2-0-0-|
|-2-----2----2-2---2-2-2-|-0-----0-0-0-0---0-2-2-|
|-0-----0----0-0---0-0-0-|-------------------3-3-|
|------------------------|-----------------------|


                          Guitar Solo 2
                    A
  E. E.   Q     E E E      Q  S S E   +E  E E E
|-----------------------||-----------------------|
|-----------------------||-----------------------|
|-7-------5-------------||-7--5h7p5---(5)---5-7--|
|----7----------7-5h7---||----------------7------|
|-----------------------||-----------------------|
|-----------------------||-----------------------|
|
| Q     E S S Q   E S S    Q  E.    S  Q    Q
|-0-----0-0-0-0---0-0-0-||-0--0-----0--0----0----|
|-1-----1-1-1-1---1-2-2-||-2--2-----2--2----2----|
|-0-----0-0-0-0---0-2-2-||-2--2-----2--2----2----|
|-2-----2-2-2-2---2-2-2-||-2--2-----2--2----2----|
|-3-----3-3-3-3---3-0-0-||-0--0-----0--0----0----|
|-----------------------||-----------------------|


                           D                  C                        A
  Q  S S E   +E  E E E     Q  E E   E S S S S E     Q  E E   E S S S S E
|------------------------|------------------------|--------------------------|
|------------------------|------------------------|--------------------------|
|-7--5h7p5---(5)---5-7---|-7--5---------------7---|-7--5---------------7-----|
|----------------7-------|------7---7-----5h7-----|------7---7-----5h7-------|
|------------------------|------------5h7---------|------------5h7-----------|
|------------------------|------------------------|--------------------------|
|
| Q  E.    S  Q    E S S   Q  E S S Q     E   S S   Q  E S S Q     E   S S
|-0--0-----0--0----0-0-0-|-2--2-0-0-0-----0---0-0-|-0--0-0-0-0-----0---0-0---|
|-2--2-----2--2----2-2-2-|-3--3-3-3-3-----3---1-1-|-1--1-1-1-1-----1---2-2---|
|-2--2-----2--2----2-2-2-|-2--2-2-2-2-----2---0-0-|-0--0-0-0-0-----0---2-2---|
|-2--2-----2--2----2-2-2-|-0--0-0-0-0-----0---2-2-|-2--2-2-2-2-----2---2-2---|
|-0--0-----0--0----0-0-0-|--------------------3-3-|-3--3-3-3-3-----3---0-0---|
|------------------------|------------------------|--------------------------|


                                                  D      Dsus2         C
  Q  S S E   +E  E E E   Q  S S E   +E  E E E     Q  S S E   +E  E S S E
|----------------------|------------------------|--------------------------|
|----------------------|------------------------|--------------------------|
|-7--5h7p5---(5)---5-7-|-7--5h7p5---(5)---5-7---|-7--5h7p5---(5)-----------|
|----------------7-----|----------------7-------|----------------7-5-7-7---|
|----------------------|------------------------|--------------------------|
|----------------------|------------------------|--------------------------|
|
| Q  E.    S  Q    Q     Q  E.    S  Q    E S S   Q  E   S S  Q    E   S S
|-0--0-----0--0----0---|-0--0-----0--0----0-0-0-|-2--2---0-0--0----0---0-0-|
|-2--2-----2--2----2---|-2--2-----2--2----2-2-2-|-3--3---3-3--3----3---1-1-|
|-2--2-----2--2----2---|-2--2-----2--2----2-2-2-|-2--2---2-2--2----2---0-0-|
|-2--2-----2--2----2---|-2--2-----2--2----2-2-2-|-0--0---0-0--0----0---2-2-|
|-0--0-----0--0----0---|-0--0-----0--0----0-0-0-|----------------------3-3-|
|----------------------|------------------------|--------------------------|


                    A
  E E E E   E S S E S S   Q  S S E   +E  E E E
|-----------------------|----------------------|
|-----------------------|----------------------|
|-5---5-----5-----5-7p5-|-7--5h7p5---(5)---5-7-|
|---7---7-----5h7-------|----------------7-----|
|-----------------------|----------------------|
|-----------------------|----------------------|
|
| Q   E S S Q     E S S   Q  E.    S  Q    Q
|-0---0-0-0-0-----0-0-0-|-0--0-----0--0----0---|
|-1---1-1-1-1-----1-2-2-|-2--2-----2--2----2---|
|-0---0-0-0-0-----0-2-2-|-2--2-----2--2----2---|
|-2---2-2-2-2-----2-2-2-|-2--2-----2--2----2---|
|-3---3-3-3-3-----3-0-0-|-0--0-----0--0----0---|
|-----------------------|----------------------|


                           D                  C
  Q  S S E   +E  E E E     Q  S S E   +E  E E E
|------------------------|-------------------------|
|------------------------|-------------------------|
|-7--5h7p5---(5)---5-7---|-7--5h7p5---(5)---5-7----|
|----------------7-------|----------------7--------|
|------------------------|-------------------------|
|------------------------|-------------------------|
|
| Q  E.    S  Q    E S S   Q  E   S S  Q    E S S
|-0--0-----0--0----0-0-0-|-2--2---0-0--0----0-0-0--|
|-2--2-----2--2----2-2-2-|-3--3---3-3--3----3-1-1--|
|-2--2-----2--2----2-2-2-|-2--2---2-2--2----2-0-0--|
|-2--2-----2--2----2-2-2-|-0--0---0-0--0----0-2-2--|
|-0--0-----0--0----0-0-0-|--------------------3-3--|
|------------------------|-------------------------|


                   A
  Q  E E   +E  E Q       Q  S S E   +E  E E E
|----------------------|----------------------|
|----------------------|----------------------|
|-7--5-7---(7)-5-7-----|-7--5h7p5---(5)---5-7-|
|----------------------|----------------7-----|
|----------------------|----------------------|
|----------------------|----------------------|
|
| Q  E S S  Q    E S S   Q  E.    S  Q    Q
|-0--0-0-0--0----0-0-0-|-0--0-----0--0----0---|
|-1--1-1-1--1----1-2-2-|-2--2-----2--2----2---|
|-0--0-0-0--0----0-2-2-|-2--2-----2--2----2---|
|-2--2-2-2--2----2-2-2-|-2--2-----2--2----2---|
|-3--3-3-3--3----3-0-0-|-0--0-----0--0----0---|
|----------------------|----------------------|


                           D    Dsus2       C
  Q  S S E   +E  E E E     Q  E E   +E  E Q
|------------------------|----------------------|
|------------------------|----------------------|
|-7--5h7p5---(5)---5-7---|-7--7-7---(7)-7-7-----|
|----------------7-------|----------------------|
|------------------------|----------------------|
|------------------------|----------------------|
|
| Q  E.    S  Q    E S S   Q  E S S  Q    E S S
|-0--0-----0--0----0-0-0-|-2--2-0-0--0----0-0-0-|
|-2--2-----2--2----2-2-2-|-3--3-3-3--3----3-1-1-|
|-2--2-----2--2----2-2-2-|-2--2-2-2--2----2-0-0-|
|-2--2-----2--2----2-2-2-|-0--0-0-0--0----0-2-2-|
|-0--0-----0--0----0-0-0-|------------------3-3-|
|------------------------|----------------------|


                         Outro
                   A                                A
  E E +E  E   Q  E E      E E S S S S +E  E +Q      E E S S S S +E  E +Q
|----------------------||-0-0-0-0-0-0-(0)---------|-0-0-0-0-0-0-(0)----------|
|----------------------||-2-2-2-2-2-2-(2)---------|-2-2-2-2-2-2-(2)----------|
|-7-7-(7)-7---7--7-----||-2-2-2-2-2-2-(2)-4-(4)---|-2-2-2-2-2-2-(2)-4-(4)----|
|------------------5---||-2-2-2-2-2-2-(2)---------|-2-2-2-2-2-2-(2)----------|
|------------------5---||-0-0-0-0-0-0-(0)---------|-0-0-0-0-0-0-(0)----------|
|----------------------||-------------------------|--------------------------|
|
| Q    E  S S Q  E S S    E E S S S S +E  E +E  E   E E S S S S +E  E +E  E
|-0----0--0-0-0--0-0-0-||-0-0-0-0-0-0-(0)-0-(0)-0-|-0-0-0-0-0-0-(0)-0-(0)-0--|
|-1----1--1-1-1--1-2-2-||-2-2-2-2-2-2-(2)-2-(2)-2-|-2-2-2-2-2-2-(2)-2-(2)-2--|
|-0----0--0-0-0--0-2-2-||-2-2-2-2-2-2-(2)-2-(2)-2-|-2-2-2-2-2-2-(2)-2-(2)-2--|
|-2----2--2-2-2--2-2-2-||-2-2-2-2-2-2-(2)-2-(2)-2-|-2-2-2-2-2-2-(2)-2-(2)-2--|
|-3----3--3-3-3--3-0-0-||-0-0-0-0-0-0-(0)-0-(0)-0-|-0-0-0-0-0-0-(0)-0-(0)-0--|
|----------------------||-------------------------|--------------------------|


  D/A                       C                  A
  E E S S S S +E  E +Q      Q  E E +E  E E E   E E S S S S +E  E +Q
|-2-2-2-2-2-2-(2)---------|------------------|-0-0-0-0-0-0-(0)---------|
|-3-3-3-3-3-3-(3)---------|-5--5-5-(5)-5-5-5-|-2-2-2-2-2-2-(2)---------|
|-2-2-2-2-2-2-(2)-4-(4)---|-4--4-4-(4)-4-4-4-|-2-2-2-2-2-2-(2)-4-(4)---|
|-0-0-0-0-0-0-(0)---------|------------------|-2-2-2-2-2-2-(2)---------|
|-0-0-0-0-0-0-(0)---------|------------------|-0-0-0-0-0-0-(0)---------|
|-------------------------|------------------|-------------------------|
|
| E E S S S S +E  E +E  E   Q  E E +E  E E E   E E S S S S +E  E +E  E
|-2-2-2-2-2-2-(2)-2-(2)-2-|-0--0-0-(0)-0-0-0-|-0-0-0-0-0-0-(0)-0-(0)-0-|
|-3-3-3-3-3-3-(3)-3-(3)-3-|-1--1-1-(1)-1-1-1-|-2-2-2-2-2-2-(2)-2-(2)-2-|
|-2-2-2-2-2-2-(2)-2-(2)-2-|-0--0-0-(0)-0-0-0-|-2-2-2-2-2-2-(2)-2-(2)-2-|
|-0-0-0-0-0-0-(0)-0-(0)-0-|-2--2-2-(2)-2-2-2-|-2-2-2-2-2-2-(2)-2-(2)-2-|
|-0-0-0-0-0-0-(0)-0-(0)-0-|-3--3-3-(3)-3-3-3-|-0-0-0-0-0-0-(0)-0-(0)-0-|
|-------------------------|------------------|-------------------------|


                            D/A                       C
  E E S S S S +E  E +Q      E E S S S S +E  E +Q      Q  E E +E  E E E
|-0-0-0-0-0-0-(0)---------|-2-2-2-2-2-2-(2)---------|------------------|
|-2-2-2-2-2-2-(2)---------|-3-3-3-3-3-3-(3)---------|-5--5-5-(5)-5-5-5-|
|-2-2-2-2-2-2-(2)-4-(4)---|-2-2-2-2-2-2-(2)-4-(4)---|-4--4-4-(4)-4-4-4-|
|-2-2-2-2-2-2-(2)---------|-0-0-0-0-0-0-(0)---------|------------------|
|-0-0-0-0-0-0-(0)---------|-0-0-0-0-0-0-(0)---------|------------------|
|-------------------------|-------------------------|------------------|
|
| E E S S S S +E  E +E  E   E E S S S S +E  E +E  E   Q  E E +E  E E E
|-0-0-0-0-0-0-(0)-0-(0)-0-|-2-2-2-2-2-2-(2)-2-(2)-2-|-0--0-0-(0)-0-0-0-|
|-2-2-2-2-2-2-(2)-2-(2)-2-|-3-3-3-3-3-3-(3)-3-(3)-3-|-1--1-1-(1)-1-1-1-|
|-2-2-2-2-2-2-(2)-2-(2)-2-|-2-2-2-2-2-2-(2)-2-(2)-2-|-0--0-0-(0)-0-0-0-|
|-2-2-2-2-2-2-(2)-2-(2)-2-|-0-0-0-0-0-0-(0)-0-(0)-0-|-2--2-2-(2)-2-2-2-|
|-0-0-0-0-0-0-(0)-0-(0)-0-|-0-0-0-0-0-0-(0)-0-(0)-0-|-3--3-3-(3)-3-3-3-|
|-------------------------|-------------------------|------------------|


  A
  E E S S S S +E  E +Q      E E S S S S +E  E +Q
|-0-0-0-0-0-0-(0)---------|-0-0-0-0-0-0-(0)---------|
|-2-2-2-2-2-2-(2)---------|-2-2-2-2-2-2-(2)---------|
|-2-2-2-2-2-2-(2)-4-(4)---|-2-2-2-2-2-2-(2)-4-(4)---|
|-2-2-2-2-2-2-(2)---------|-2-2-2-2-2-2-(2)---------|
|-0-0-0-0-0-0-(0)---------|-0-0-0-0-0-0-(0)---------|
|-------------------------|-------------------------|
|
| E E S S S S +E  E +E  E   E E S S S S +E  E +E  E
|-0-0-0-0-0-0-(0)-0-(0)-0-|-0-0-0-0-0-0-(0)-0-(0)-0-|
|-2-2-2-2-2-2-(2)-2-(2)-2-|-2-2-2-2-2-2-(2)-2-(2)-2-|
|-2-2-2-2-2-2-(2)-2-(2)-2-|-2-2-2-2-2-2-(2)-2-(2)-2-|
|-2-2-2-2-2-2-(2)-2-(2)-2-|-2-2-2-2-2-2-(2)-2-(2)-2-|
|-0-0-0-0-0-0-(0)-0-(0)-0-|-0-0-0-0-0-0-(0)-0-(0)-0-|
|-------------------------|-------------------------|


  D/A
  E E S S S S +S  S E  E  S S
|-2-2-2-2-2-2-(2)-2-2--2--2-2--|
|-3-3-3-3-3-3-(3)-3-3--3--3-3--|
|-2-2-2-2-2-2-(2)-2-2--2--2-2--|
|-0-0-0-0-0-0-(0)-0-0--0--0-0--|
|-0-0-0-0-0-0-(0)-0-0--0--0-0--|
|------------------------------|
|
| E E S S S S +E    E +E  E
|-2-2-2-2-2-2-(2)---2-(2)-2----|
|-3-3-3-3-3-3-(3)---3-(3)-3----|
|-2-2-2-2-2-2-(2)---2-(2)-2----|
|-0-0-0-0-0-0-(0)---0-(0)-0----|
|-0-0-0-0-0-0-(0)---0-(0)-0----|
|------------------------------|


  C                  A
  Q  E E +E  E E E   E E S S S S +E  E +Q      E E S S S S +E  E +Q
|------------------|-0-0-0-0-0-0-(0)---------|-0-0-0-0-0-0-(0)---------|
|-5--5-5-(5)-5-5-5-|-2-2-2-2-2-2-(2)---------|-2-2-2-2-2-2-(2)---------|
|-4--4-4-(4)-4-4-4-|-2-2-2-2-2-2-(2)-4-(4)---|-2-2-2-2-2-2-(2)-4-(4)---|
|------------------|-2-2-2-2-2-2-(2)---------|-2-2-2-2-2-2-(2)---------|
|------------------|-0-0-0-0-0-0-(0)---------|-0-0-0-0-0-0-(0)---------|
|------------------|-------------------------|-------------------------|
|
| Q  E E +E  E E E   E E S S S S +E  E +E  E   E E S S S S +E  E +E  E
|-0--0-0-(0)-0-0-0-|-0-0-0-0-0-0-(0)-0-(0)-0-|-0-0-0-0-0-0-(0)-0-(0)-0-|
|-1--1-1-(1)-1-1-1-|-2-2-2-2-2-2-(2)-2-(2)-2-|-2-2-2-2-2-2-(2)-2-(2)-2-|
|-0--0-0-(0)-0-0-0-|-2-2-2-2-2-2-(2)-2-(2)-2-|-2-2-2-2-2-2-(2)-2-(2)-2-|
|-2--2-2-(2)-2-2-2-|-2-2-2-2-2-2-(2)-2-(2)-2-|-2-2-2-2-2-2-(2)-2-(2)-2-|
|-3--3-3-(3)-3-3-3-|-0-0-0-0-0-0-(0)-0-(0)-0-|-0-0-0-0-0-0-(0)-0-(0)-0-|
|------------------|-------------------------|-------------------------|


  D/A                       C                  A
  E E S S S S +E  E +Q      Q  E E +E  E E E   E E S S S S +E  E +Q
|-2-2-2-2-2-2-(2)---------|------------------|-0-0-0-0-0-0-(0)---------|
|-3-3-3-3-3-3-(3)---------|-5--5-5-(5)-5-5-5-|-2-2-2-2-2-2-(2)---------|
|-2-2-2-2-2-2-(2)-4-(4)---|-4--4-4-(4)-4-4-4-|-2-2-2-2-2-2-(2)-4-(4)---|
|-0-0-0-0-0-0-(0)---------|------------------|-2-2-2-2-2-2-(2)---------|
|-0-0-0-0-0-0-(0)---------|------------------|-0-0-0-0-0-0-(0)---------|
|-------------------------|------------------|-------------------------|
|
| Gtr III
| E E S S S S +E  E +E  E   Q  E E +E  E E E   E E S S S S +E  E +E  E
|-2-2-2-2-2-2-(2)-2-(2)-2-|-0--0-0-(0)-0-0-0-|-0-0-0-0-0-0-(0)-0-(0)-0-|
|-3-3-3-3-3-3-(3)-3-(3)-3-|-1--1-1-(1)-1-1-1-|-2-2-2-2-2-2-(2)-2-(2)-2-|
|-2-2-2-2-2-2-(2)-2-(2)-2-|-0--0-0-(0)-0-0-0-|-2-2-2-2-2-2-(2)-2-(2)-2-|
|-0-0-0-0-0-0-(0)-0-(0)-0-|-2--2-2-(2)-2-2-2-|-2-2-2-2-2-2-(2)-2-(2)-2-|
|-0-0-0-0-0-0-(0)-0-(0)-0-|-3--3-3-(3)-3-3-3-|-0-0-0-0-0-0-(0)-0-(0)-0-|
|-------------------------|------------------|-------------------------|


                            D/A                       C
  E E S S S S +E  E +Q      E E S S S S +E  E +Q      Q  E E +E  E E E
|-0-0-0-0-0-0-(0)---------|-2-2-2-2-2-2-(2)---------|------------------|
|-2-2-2-2-2-2-(2)---------|-3-3-3-3-3-3-(3)---------|-5--5-5-(5)-5-5-5-|
|-2-2-2-2-2-2-(2)-4-(4)---|-2-2-2-2-2-2-(2)-4-(4)---|-4--4-4-(4)-4-4-4-|
|-2-2-2-2-2-2-(2)---------|-0-0-0-0-0-0-(0)---------|------------------|
|-0-0-0-0-0-0-(0)---------|-0-0-0-0-0-0-(0)---------|------------------|
|-------------------------|-------------------------|------------------|
|
| E E S S S S +E  E +E  E   E E S S S S +E  E +E  E   Q  E E +E  E E E
|-0-0-0-0-0-0-(0)-0-(0)-0-|-2-2-2-2-2-2-(2)-2-(2)-2-|-0--0-0-(0)-0-0-0-|
|-2-2-2-2-2-2-(2)-2-(2)-2-|-3-3-3-3-3-3-(3)-3-(3)-3-|-1--1-1-(1)-1-1-1-|
|-2-2-2-2-2-2-(2)-2-(2)-2-|-2-2-2-2-2-2-(2)-2-(2)-2-|-0--0-0-(0)-0-0-0-|
|-2-2-2-2-2-2-(2)-2-(2)-2-|-0-0-0-0-0-0-(0)-0-(0)-0-|-2--2-2-(2)-2-2-2-|
|-0-0-0-0-0-0-(0)-0-(0)-0-|-0-0-0-0-0-0-(0)-0-(0)-0-|-3--3-3-(3)-3-3-3-|
|-------------------------|-------------------------|------------------|


  A                                                   D/A
  E E S S S S +E  E +Q      E E S S S S +E  E +Q      E E S S S S +E  E +Q
|-0-0-0-0-0-0-(0)---------|-0-0-0-0-0-0-(0)---------|-2-2-2-2-2-2-(2)----------|
|-2-2-2-2-2-2-(2)---------|-2-2-2-2-2-2-(2)---------|-3-3-3-3-3-3-(3)----------|
|-2-2-2-2-2-2-(2)-4-(4)---|-2-2-2-2-2-2-(2)-4-(4)---|-2-2-2-2-2-2-(2)-4-(4)----|
|-2-2-2-2-2-2-(2)---------|-2-2-2-2-2-2-(2)---------|-0-0-0-0-0-0-(0)----------|
|-0-0-0-0-0-0-(0)---------|-0-0-0-0-0-0-(0)---------|-0-0-0-0-0-0-(0)----------|
|-------------------------|-------------------------|--------------------------|
|
| E E S S S S +E  E +E  E   E E S S S S +E  E +E  E   E E S S S S +E  E +E  E
|-0-0-0-0-0-0-(0)-0-(0)-0-|-0-0-0-0-0-0-(0)-0-(0)-0-|-2-2-2-2-2-2-(2)-2-(2)-2--|
|-2-2-2-2-2-2-(2)-2-(2)-2-|-2-2-2-2-2-2-(2)-2-(2)-2-|-3-3-3-3-3-3-(3)-3-(3)-3--|
|-2-2-2-2-2-2-(2)-2-(2)-2-|-2-2-2-2-2-2-(2)-2-(2)-2-|-2-2-2-2-2-2-(2)-2-(2)-2--|
|-2-2-2-2-2-2-(2)-2-(2)-2-|-2-2-2-2-2-2-(2)-2-(2)-2-|-0-0-0-0-0-0-(0)-0-(0)-0--|
|-0-0-0-0-0-0-(0)-0-(0)-0-|-0-0-0-0-0-0-(0)-0-(0)-0-|-0-0-0-0-0-0-(0)-0-(0)-0--|
|-------------------------|-------------------------|--------------------------|


  C                  A
  Q  E E +E  E E E   E E S S S S +E  E +Q      E E S S S S +E  E +Q
|------------------|-0-0-0-0-0-0-(0)---------|-0-0-0-0-0-0-(0)---------|
|-5--5-5-(5)-5-5-5-|-2-2-2-2-2-2-(2)---------|-2-2-2-2-2-2-(2)---------|
|-4--4-4-(4)-4-4-4-|-2-2-2-2-2-2-(2)-4-(4)---|-2-2-2-2-2-2-(2)-4-(4)---|
|------------------|-2-2-2-2-2-2-(2)---------|-2-2-2-2-2-2-(2)---------|
|------------------|-0-0-0-0-0-0-(0)---------|-0-0-0-0-0-0-(0)---------|
|------------------|-------------------------|-------------------------|
|
| Q  E E +E  E E E   E E S S S S +E  E +E  E   E E S S S S +E  E +E  E
|-0--0-0-(0)-0-0-0-|-0-0-0-0-0-0-(0)-0-(0)-0-|-0-0-0-0-0-0-(0)-0-(0)-0-|
|-1--1-1-(1)-1-1-1-|-2-2-2-2-2-2-(2)-2-(2)-2-|-2-2-2-2-2-2-(2)-2-(2)-2-|
|-0--0-0-(0)-0-0-0-|-2-2-2-2-2-2-(2)-2-(2)-2-|-2-2-2-2-2-2-(2)-2-(2)-2-|
|-2--2-2-(2)-2-2-2-|-2-2-2-2-2-2-(2)-2-(2)-2-|-2-2-2-2-2-2-(2)-2-(2)-2-|
|-3--3-3-(3)-3-3-3-|-0-0-0-0-0-0-(0)-0-(0)-0-|-0-0-0-0-0-0-(0)-0-(0)-0-|
|------------------|-------------------------|-------------------------|


  D/A                       C                  A
  E E S S S S +E  E +Q      Q  E E +E  E E E   E E S S S S +E  E +Q
|-2-2-2-2-2-2-(2)---------|------------------|-0-0-0-0-0-0-(0)---------|
|-3-3-3-3-3-3-(3)---------|-5--5-5-(5)-5-5-5-|-2-2-2-2-2-2-(2)---------|
|-2-2-2-2-2-2-(2)-4-(4)---|-4--4-4-(4)-4-4-4-|-2-2-2-2-2-2-(2)-4-(4)---|
|-0-0-0-0-0-0-(0)---------|------------------|-2-2-2-2-2-2-(2)---------|
|-0-0-0-0-0-0-(0)---------|------------------|-0-0-0-0-0-0-(0)---------|
|-------------------------|------------------|-------------------------|
|
| E E S S S S +E  E +E  E   Q  E E +E  E E E   E E S S S S +E  E +E  E
|-2-2-2-2-2-2-(2)-2-(2)-2-|-0--0-0-(0)-0-0-0-|-0-0-0-0-0-0-(0)-0-(0)-0-|
|-3-3-3-3-3-3-(3)-3-(3)-3-|-1--1-1-(1)-1-1-1-|-2-2-2-2-2-2-(2)-2-(2)-2-|
|-2-2-2-2-2-2-(2)-2-(2)-2-|-0--0-0-(0)-0-0-0-|-2-2-2-2-2-2-(2)-2-(2)-2-|
|-0-0-0-0-0-0-(0)-0-(0)-0-|-2--2-2-(2)-2-2-2-|-2-2-2-2-2-2-(2)-2-(2)-2-|
|-0-0-0-0-0-0-(0)-0-(0)-0-|-3--3-3-(3)-3-3-3-|-0-0-0-0-0-0-(0)-0-(0)-0-|
|-------------------------|------------------|-------------------------|


                            D/A                       C
  E E S S S S +E  E +Q      E E S S S S +E  E +Q      Q  E E +E  E E E
|-0-0-0-0-0-0-(0)---------|-2-2-2-2-2-2-(2)---------|------------------*|
|-2-2-2-2-2-2-(2)---------|-3-3-3-3-3-3-(3)---------|-5--5-5-(5)-5-5-5-*|
|-2-2-2-2-2-2-(2)-4-(4)---|-2-2-2-2-2-2-(2)-4-(4)---|-4--4-4-(4)-4-4-4-*|
|-2-2-2-2-2-2-(2)---------|-0-0-0-0-0-0-(0)---------|------------------*|
|-0-0-0-0-0-0-(0)---------|-0-0-0-0-0-0-(0)---------|------------------*|
|-------------------------|-------------------------|------------------*|
|
| E E S S S S +E  E +E  E   E E S S S S +E  E +E  E   Q  E E +E  E E E
|-0-0-0-0-0-0-(0)-0-(0)-0-|-2-2-2-2-2-2-(2)-2-(2)-2-|-0--0-0-(0)-0-0-0-*|
|-2-2-2-2-2-2-(2)-2-(2)-2-|-3-3-3-3-3-3-(3)-3-(3)-3-|-1--1-1-(1)-1-1-1-*|
|-2-2-2-2-2-2-(2)-2-(2)-2-|-2-2-2-2-2-2-(2)-2-(2)-2-|-0--0-0-(0)-0-0-0-*|
|-2-2-2-2-2-2-(2)-2-(2)-2-|-0-0-0-0-0-0-(0)-0-(0)-0-|-2--2-2-(2)-2-2-2-*|
|-0-0-0-0-0-0-(0)-0-(0)-0-|-0-0-0-0-0-0-(0)-0-(0)-0-|-3--3-3-(3)-3-3-3-*|
|-------------------------|-------------------------|------------------*|



Duration Legend
---------------
W - whole; H - half; Q - quarter; E - 8th; S - 16th; T - 32nd; X - 64th; a - acciaccatura
+ - note tied to previous; . - note dotted; .. - note double dotted
Uncapitalized letters represent notes that are staccato (1/2 duration)
Irregular groupings are notated above the duration line
Duration letters will always appear directly above the note/fret number it represents the
duration for.  Duration letters with no fret number below them represent rests.  Multi-
bar rests are notated in the form Wxn, where n is the number of bars to rest for.  Low
melody durations appear below the staff

Tablature Legend
----------------
 h   - hammer-on
 p   - pull-off
 b   - bend
 pb  - pre-bend
 r   - bend release (if no number after the r, then release immediately)
 /\  - slide into or out of (from/to "nowhere")
 s   - legato slide
 S   - shift slide
 - natural harmonic
[n]  - artificial harmonic
n(n) - tapped harmonic
 ~   - vibrato
 tr  - trill
 T   - tap
 TP  - trem. picking
 PM  - palm muting
\n/  - tremolo bar dip; n = amount to dip
 \n  - tremolo bar down
 n/  - tremolo bar up
/n\  - tremolo bar inverted dip
 =   - hold bend; also acts as connecting device for hammers/pulls
 <> - volume swell (louder/softer)
 x   - on rhythm slash represents muted slash
 o   - on rhythm slash represents single note slash

Misc Legend
-----------
 |  - bar
||  - double bar
||o - repeat start
o|| - repeat end
*|  - double bar (ending)
 :  - bar (freetime)
 $  - Segno
 &  - Coda
Tempo markers -  = BPM(8/16=s8/s16), where s8 = swing 8ths, s16 = swing 16ths

Tap to rate this tab
# A B C D E F G H I J K L M N O P Q R S T U V W X Y Z