Guitaretab - guitar tabs
Song name
# A B C D E F G H I J K L M N O P Q R S T U V W X Y Z

Oasis - Roll With It tab

                      ROLL WITH IT
                              As recorded by Oasis
             (From the 1995 Album (WHAT'S THE STORY) MORNING GLORY)

Words and Music by Noel Gallagher

Gtr I (E A D G B E) - 'Untitled'
Gtr II (E A D G B E) - 'Untitled'
Gtr III (E A D G B E) - 'Untitled'

 Intro
  Q=127
  D7               C9               G
 4/4
  Gtr III
  H    +E  E E E   H    +E  E E E   Q  Q  E E E E   Q  Q  E E E E
|-2----(2)-2-2-0-|----------------|-3--3--3-3-3-3-|-3--3--3-3-3-3-|
|-1----(1)-1-1-0-|-3----(3)-3-3-0-|-3--3--3-3-3-3-|-3--3--3-3-3-3-|
|-2----(2)-2-2-0-|-3----(3)-3-3-0-|-0--0--0-0-0-0-|-0--0--0-0-0-0-|
|-0----(0)-0-0-0-|-2----(2)-2-2-0-|-0--0--0-0-0-0-|-0--0--0-0-0-0-|
|----------------|-3----(3)-3-3-0-|-2--2--2-2-2-2-|-2--2--2-2-2-2-|
|----------------|----------------|-3--3--3-3-3-3-|-3--3--3-3-3-3-|


  D7               C9               G
  Gtr II
  H    +E  E E E   H    +E  E E E   Q  Q  E E E E   Q  Q  E E E E
|-2----(2)-2-2-2-|----------------|-3--3--3-3-3-3-|-3--3--3-3-3-3-|
|-1----(1)-1-1-1-|-3----(3)-3-3-3-|-3--3--3-3-3-3-|-3--3--3-3-3-3-|
|-2----(2)-2-2-2-|-3----(3)-3-3-3-|-0--0--0-0-0-0-|-0--0--0-0-0-0-|
|-0----(0)-0-0-0-|-2----(2)-2-2-2-|-0--0--0-0-0-0-|-0--0--0-0-0-0-|
|----------------|-3----(3)-3-3-3-|-2--2--2-2-2-2-|-2--2--2-2-2-2-|
|----------------|----------------|-3--3--3-3-3-3-|-3--3--3-3-3-3-|
|
| Gtr III
| H    +E  E E E   H    +E  E E E   Q  Q  E E E E   Q  Q  E E E E
|-2----(2)-2-2-0-|----------------|-3--3--3-3-3-3-|-3--3--3-3-3-3-|
|-1----(1)-1-1-0-|-3----(3)-3-3-0-|-3--3--3-3-3-3-|-3--3--3-3-3-3-|
|-2----(2)-2-2-0-|-3----(3)-3-3-0-|-0--0--0-0-0-0-|-0--0--0-0-0-0-|
|-0----(0)-0-0-0-|-2----(2)-2-2-0-|-0--0--0-0-0-0-|-0--0--0-0-0-0-|
|----------------|-3----(3)-3-3-0-|-2--2--2-2-2-2-|-2--2--2-2-2-2-|
|----------------|----------------|-3--3--3-3-3-3-|-3--3--3-3-3-3-|


  D7               C9               A
                                    Gtr I
  H    +E  E E E   H    +E  E E E   E E E E  E  E E E    E  E E E  E  E E E
|-2----(2)-2-2-2-|----------------|-0-0-0-0--0--0-0-0-|--0--0-0-0--0--0-0-0-||
|-1----(1)-1-1-1-|-3----(3)-3-3-3-|-2-2-2-2--2--2-2-2-|--2--2-2-2--2--2-2-2-||
|-2----(2)-2-2-2-|-3----(3)-3-3-3-|-2-2-2-2--2--2-2-2-|--2--2-2-2--2--2-2-2-||
|-0----(0)-0-0-0-|-2----(2)-2-2-2-|-2-2-2-2--2--2-2-2-|--2--2-2-2--2--2-2-2-||
|----------------|-3----(3)-3-3-3-|-0-0-0-0--0--0-0-0-|--0--0-0-0--0--0-0-0-||
|----------------|----------------|-------------------|---------------------||
|
| H    +E  E E E   H    +E  E E E   Q   E E +E  Q   E   +E  Q   E +E  Q   E
|-2----(2)-2-2-0-|----------------|-------------------|---------------------||
|-1----(1)-1-1-0-|-3----(3)-3-3-0-|-----2-0-(0)-2---3-|-(3)-2---0-(0)-2---3-||
|-2----(2)-2-2-0-|-3----(3)-3-3-0-|-------------------|---------------------||
|-0----(0)-0-0-0-|-2----(2)-2-2-0-|-------------------|---------------------||
|----------------|-3----(3)-3-3-0-|-0-----------------|---------------------||
|----------------|----------------|-------------------|---------------------||


 Verse
  G
   Q   Q  E E Q     Q   Q  E E Q     Q   Q  E E Q     Q    Q   E E Q
|--3---3--3-3-3--|--3---3--3-3-3--|--3---3--3-3-3--|--3----3---3-3-3--|
|--0---0--0-0-0--|--0---0--0-0-0--|--0---0--0-0-0--|--0----0---0-0-0--|
|--0---0--0-0-0--|--0---0--0-0-0--|--0---0--0-0-0--|--0----0---0-0-0--|
|--0---0--0-0-0--|--0---0--0-0-0--|--0---0--0-0-0--|--0----0---0-0-0--|
|--2---2--2-2-2--|--2---2--2-2-2--|--2---2--2-2-2--|--2----2---2-2-2--|
|--3---3--3-3-3--|--3---3--3-3-3--|--3---3--3-3-3--|--3----3---3-3-3--|
|
| +W               +W               +W               +E  E E E E E Q
|----------------|----------------|----------------|-------------3----|
|-(3)------------|-(3)------------|-(3)------------|-(3)-----------3--|
|----------------|----------------|----------------|-----------0------|
|----------------|----------------|----------------|---------0--------|
|----------------|----------------|----------------|-----2-3----------|
|----------------|----------------|----------------|------------------|


  C     G/B   Am                        G
  Q  Q  E E E E   +E  E Q    Q     Q    Q  Q   E  E Q      Q    Q   Q   Q
|-0--0--3-3-3-0-|-(0)-0-0----0-----0--|-3--3---3--3-3---|--3----3---3---3---||
|-1--1--3-3-3-1-|-(1)-1-1----1-----1--|-0--0---0--0-0---|--0----0---0---0---||
|-0--0--0-0-0-2-|-(2)-2-2----2-----2--|-0--0---0--0-0---|--0----0---0---0---||
|-2--2--0-0-0-2-|-(2)-2-2----2-----2--|-0--0---0--0-0---|--0----0---0---0---||
|-3--3--2-2-2-0-|-(0)-0-0----0-----0--|-2--2---2--2-2---|--2----2---2---2---||
|---------------|---------------------|-3--3---3--3-3---|--3----3---3---3---||
|
| Q  Q  E E E E   +E  Q   E +E  Q.      Q  Q  +E  Q   E   +E  E E E E E E E
|---------------|---------3-(3)-------|-----------------|-------------3-----||
|----3----------|-----3---------3-----|----3--(3)-3---3-|-(3)-----------3---||
|----0------0---|---------------------|----0--(0)-0---0-|-(0)-------0-----0-||
|---------0-----|---------------------|-----------------|---------0---------||
|-3-----2-----0-|-(0)-----------------|-----------------|-----2-3-----------||
|---------------|---------------------|-3---------------|-------------------||


 Verse
  G
   Q   Q  Q  Q     Q   Q  Q  Q     Q   Q  Q  Q     Q    Q   Q   Q
|--3---3--3--3--|--3---3--3--3--|--3---3--3--3--|--3----3---3---3---|
|--0---0--0--0--|--0---0--0--0--|--0---0--0--0--|--0----0---0---0---|
|--0---0--0--0--|--0---0--0--0--|--0---0--0--0--|--0----0---0---0---|
|--0---0--0--0--|--0---0--0--0--|--0---0--0--0--|--0----0---0---0---|
|--2---2--2--2--|--2---2--2--2--|--2---2--2--2--|--2----2---2---2---|
|--3---3--3--3--|--3---3--3--3--|--3---3--3--3--|--3----3---3---3---|
|
| +W              +W              +W              +E  E E E E E E E
|---------------|---------------|---------------|-------------3-----|
|---------------|---------------|---------------|---------------3---|
|-(0)-----------|-(0)-----------|-(0)-----------|-(0)-------0-----0-|
|---------------|---------------|---------------|---------0---------|
|---------------|---------------|---------------|-----2-3-----------|
|---------------|---------------|---------------|-------------------|


  C      G/B     Am
  Q   Q  E E +E  E   +E  E Q    E  E Q
|-0---0----------0-|-(0)-0-0----0--0-0---|
|-1---1--0-0-(0)-1-|-(1)-1-1----1--1-1---|
|-0---0--0-0-(0)-2-|-(2)-2-2----2--2-2---|
|-2---2--0-0-(0)-2-|-(2)-2-2----2--2-2---|
|-3---3--2-2-(2)-0-|-(0)-0-0----0--0-0---|
|------------------|---------------------|
|
| E E Q  E E  E  E   +E  Q   E +Q    E E
|------------------|-------------------3-|
|-----3------------|---------3-(3)---3---|
|-------------0----|---------------------|
|---0------0-------|---------------------|
|-3------2-------0-|-(0)-0---------------|
|------------------|---------------------|


  C      G/B     Am
  Q   Q  E E +E  E   +E  E Q    E  E Q
|-0---0----------0-|-(0)-0-0----0--0-0--|
|-1---1--0-0-(0)-1-|-(1)-1-1----1--1-1--|
|-0---0--0-0-(0)-2-|-(2)-2-2----2--2-2--|
|-2---2--0-0-(0)-2-|-(2)-2-2----2--2-2--|
|-3---3--2-2-(2)-0-|-(0)-0-0----0--0-0--|
|------------------|--------------------|
|
| E E Q  E E  E  E   +E  Q   E +E  E Q
|------------------|---------3-(3)------|
|-----3------------|-----3---------3----|
|-------------0----|-----------------2--|
|---0------0-------|--------------------|
|-3------2-------0-|-(0)----------------|
|------------------|--------------------|


  C      G/B     D                         G
  Q   Q  E E +E  E   +Q    Q    Q    Q     Q  Q   Q    Q     Q  Q  Q    Q
|-0---0----------2-|-(2)---2----2----2---|-3--3---3----3---|-3--3--3----3--||
|-1---1--0-0-(0)-3-|-(3)---3----3----3---|-0--0---0----0---|-0--0--0----0--||
|-0---0--0-0-(0)-2-|-(2)---2----2----2---|-0--0---0----0---|-0--0--0----0--||
|-2---2--0-0-(0)-0-|-(0)---0----0----0---|-0--0---0----0---|-0--0--0----0--||
|-3---3--2-2-(2)---|---------------------|-2--2---2----2---|-2--2--2----2--||
|------------------|---------------------|-3--3---3----3---|-3--3--3----3--||
|
| E E Q  E E  E  E   +E  E E E +E  Q   E   Q  Q  +E  Q   E   H     E Q.
|----------------2-|-(2)-0-2-3-(3)-2---3-|----3--(3)-------|---------------||
|----------------3-|-(3)-----------------|----3--(3)-3---3-|-0-----3-0-----||
|-----0-------0--2-|-(2)-----------------|-----------------|-0-------------||
|---0------0-------|---------------------|-----------------|-0-------------||
|-3------2---------|---------------------|-----------------|-2-------------||
|------------------|---------------------|-3---------------|-3-------------||


 Chorus
  F                             G
  Gtr III
  Q  Q  E Q  E   Q  Q  E Q  E   Q  Q  E Q  E   Q  Q  E Q  E
|-1--1--1-1--1-|-1--1--1-1--1-|-3--3--3-3--3-|-3--3--3-3--3-|
|-1--1--1-1--1-|-1--1--1-1--1-|-0--0--0-0--0-|-0--0--0-0--0-|
|-2--2--2-2--2-|-2--2--2-2--2-|-0--0--0-0--0-|-0--0--0-0--0-|
|-3--3--3-3--3-|-3--3--3-3--3-|-0--0--0-0--0-|-0--0--0-0--0-|
|-3--3--3-3--3-|-3--3--3-3--3-|-2--2--2-2--2-|-2--2--2-2--2-|
|-1--1--1-1--1-|-1--1--1-1--1-|-3--3--3-3--3-|-3--3--3-3--3-|


  F                             G
  Q  Q  E Q  E   Q  Q  E Q  E   Q  Q  E Q  E   Q  Q  E Q  E
|-1--1--1-1--1-|-1--1--1-1--1-|-3--3--3-3--3-|-3--3--3-3--3-|
|-1--1--1-1--1-|-1--1--1-1--1-|-0--0--0-0--0-|-0--0--0-0--0-|
|-2--2--2-2--2-|-2--2--2-2--2-|-0--0--0-0--0-|-0--0--0-0--0-|
|-3--3--3-3--3-|-3--3--3-3--3-|-0--0--0-0--0-|-0--0--0-0--0-|
|-3--3--3-3--3-|-3--3--3-3--3-|-2--2--2-2--2-|-2--2--2-2--2-|
|-1--1--1-1--1-|-1--1--1-1--1-|-3--3--3-3--3-|-3--3--3-3--3-|


  F                             G
  Q  Q  E Q  E   Q  Q  E Q  E   Q  Q  E Q  E   Q  Q  E Q  E
|-1--1--1-1--1-|-1--1--1-1--1-|-3--3--3-3--3-|-3--3--3-3--3-|
|-1--1--1-1--1-|-1--1--1-1--1-|-0--0--0-0--0-|-0--0--0-0--0-|
|-2--2--2-2--2-|-2--2--2-2--2-|-0--0--0-0--0-|-0--0--0-0--0-|
|-3--3--3-3--3-|-3--3--3-3--3-|-0--0--0-0--0-|-0--0--0-0--0-|
|-3--3--3-3--3-|-3--3--3-3--3-|-2--2--2-2--2-|-2--2--2-2--2-|
|-1--1--1-1--1-|-1--1--1-1--1-|-3--3--3-3--3-|-3--3--3-3--3-|


  F
  E E E E +E  Q  E   +E  E E E +E  Q  E
|------------------|--------------------|
|-----1-0-(0)-1----|-------1-0-(0)-1--1-|
|----------------0-|-(0)-0--------------|
|-3-3--------------|--------------------|
|------------------|--------------------|
|------------------|--------------------|


  C                  D      C        G/B   D
  E E E E +E  E Q    E E Q  Q  E E   E E E E +E  E E E
|------------------|---------------|-------------------||
|-----1-0-(0)-1----|-------------3-|-------------------||
|---0-----------0--|-2-2-2---------|-----------------0-||
|-2----------------|-0-0-0--5--5---|-------0-(0)-0-2---||
|------------------|--------3--3---|-2-0-2-------------||
|------------------|---------------|-------------------||


 Verse
  G
  Q  Q  +E  E Q    Q  Q  +E  E Q    Q  Q  +E  E Q    E E E E E E E E
|----3--(3)------|----3--(3)------|----3--(3)------|-----------3-----|
|----0--(0)-3-0--|----0--(0)-3-0--|----0--(0)-3-0--|-------------3---|
|----------------|----------------|----------------|---------0-----0-|
|----------------|----------------|----------------|-------0---------|
|----------------|----------------|----------------|---2-3-----------|
|-3--------------|-3--------------|-3--------------|-----------------|


  C      G/B   Am                       G
  E E Q  E E E E   +E  E E E +E  E Q    Q  Q  +E  E Q    E E E E E E E E
|----------------|---------3-(3)------|----------------|-----------3-----||
|-----3----------|-----3---------3----|-------------3--|-------------3---||
|---0--------0---|-------0---------0--|-----------0----|---------0-----0-||
|----------0-----|--------------------|-5--5--(5)------|-------0---------||
|-3------2-----0-|-(0)----------------|-5--5--(5)------|---2-3-----------||
|----------------|--------------------|-3--3--(3)------|-----------------||


 Interlude
  Gtr II
  W                 +H        E  E E E
|-----------------|--------------------|
|-----------------|--------------------|
|-4---------------|-(4)-------2--2p0-2-|
|-----------------|--------------------|
|-----------------|--------------------|
|-----------------|--------------------|
|
| Gtr III
| Q  E E +E  E Q     Q   E E +E  E Q
|------3-(3)------|--------3-(3)-------|
|-3--3-------3----|--3---3-------3-----|
|-0--0---------0--|--0---0---------0---|
|-----------------|--------------------|
|-----------------|--------------------|
|-----------------|--------------------|


  +E  Q.     +H         +W
|---------------------|-------------------|
|---------------------|-------------------|
|-(2)-0------(0)------|-(0)---------------|
|---------------------|-------------------|
|---------------------|-------------------|
|---------------------|-------------------|
|
|  Q     E E +E  E Q     Q   E E +E  E Q
|----------3-(3)------|--------3-(3)------|
|--3-----3-------3----|--3---3-------3----|
|--0-----0---------0--|--0---0---------0--|
|---------------------|-------------------|
|---------------------|-------------------|
|---------------------|-------------------|


  C      G/B     Am                     C      G/B   Am
  H      +E  Q   E   +E  Q  E E Q.      Q  E E E Q   E    H       E E Q
|------------------|------------------|----------------|-----------------|
|------------------|------------------|-0--0-0-0-0-----|-----------------|
|-4------(4)-4---2-|-(2)-2--0-2-0-----|-0--0-0-0-0---0-|--0-------2-2-0--|
|------------------|------------------|----------------|-----------------|
|------------------|------------------|----------------|-----------------|
|------------------|------------------|----------------|-----------------|
|
| Q  E E  E  E E E   +E  Q  E E E  Q    Q  E E E E E E   +E  Q  E E E Q
|------------------|------------------|----------------|-----------------|
|----3-3-----3-3---|-----3--3-3-3--3--|----3-3---3-3---|-----3--3-3-3-3--|
|----0-0-----0-0---|-----0--0-0-0--0--|----0-0---0-0---|-----0--0-0-0-0--|
|------------------|------------------|----------------|-----------------|
|-3-------2------0-|-(0)--------------|-3------2-----0-|-(0)-------------|
|------------------|------------------|----------------|-----------------|


  C      G/B   D                       G
  Q  E E E Q   E   +E  Q  E +E  Q.     W           E   E  E  E  Q  Q
|--------------2-|-(2)-2--3-(3)-2----|----------|---------------------||
|-0--0-0-0-0---3-|-(3)-3--3-(3)-3----|----------|--------12----10--8--||
|-0--0-0-0-0---2-|-(2)-2--2-(2)-2----|----------|---------------------||
|----------------|-------------------|----------|-----12----12-10--9--||
|----------------|-------------------|-5--------|---------------------||
|----------------|-------------------|-3--------|---------------------||
|
| Q  Q   E E E E   +E  Q  E +E  Q.     W          +W
|--------------3-|-(3)-2--3-(3)-2----|----------|---------------------||
|----3-----3-3-3-|-(3)-3--3-(3)-3----|-3--------|-(3)-----------------||
|----0-----0-0-2-|-(2)-2--2-(2)-2----|-0--------|-(0)-----------------||
|----------------|-------------------|-0--------|-(0)-----------------||
|-3------2-------|-------------------|-2--------|-(2)-----------------||
|----------------|-------------------|-3--------|-(3)-----------------||


 Chorus
  F                                   G
  W              Q  E  E  E  E  Q      W               +H       E  E  Q
|--------------|--------------------|---------------|---------------------|
|--------------|---------------10---|-12------------|-(12)--------12------|
|--------------|--------------------|---------------|---------------------|
|--------------|------10-10-10------|-12------------|-(12)-----12----12---|
|--------------|--------------------|---------------|---------------------|
|--------------|--------------------|---------------|---------------------|
|
| Q  Q  E Q  E   Q  Q     E  Q    E    Q  Q  E Q  E     Q   Q   E  Q    E
|-1--1--1-1--1-|-1--1-----1--1----1-|--3--3--3-3--3-|---3---3---3--3----3-|
|-1--1--1-1--1-|-1--1-----1--1----1-|--0--0--0-0--0-|---0---0---0--0----0-|
|-2--2--2-2--2-|-2--2-----2--2----2-|--0--0--0-0--0-|---0---0---0--0----0-|
|-3--3--3-3--3-|-3--3-----3--3----3-|--0--0--0-0--0-|---0---0---0--0----0-|
|-3--3--3-3--3-|-3--3-----3--3----3-|--2--2--2-2--2-|---2---2---2--2----2-|
|-1--1--1-1--1-|-1--1-----1--1----1-|--3--3--3-3--3-|---3---3---3--3----3-|

[ Tab from: http://www.guitaretab.com/o/oasis/13708.html ]
  F
   W               +Q.     E  +E   Q.
|---------------|------------------------|
|-10------------|-(10)------------10-----|
|---------------|------------------------|
|-10------------|-(10)----10-(10)--------|
|---------------|------------------------|
|---------------|------------------------|
|
|  Q  Q  E Q  E     Q   Q      E   Q   E
|--1--1--1-1--1-|---1---1------1---1---1-|
|--1--1--1-1--1-|---1---1------1---1---1-|
|--2--2--2-2--2-|---2---2------2---2---2-|
|--3--3--3-3--3-|---3---3------3---3---3-|
|--3--3--3-3--3-|---3---3------3---3---3-|
|--1--1--1-1--1-|---1---1------1---1---1-|


  G
   W               +Q    E  E  +E   Q.
|---------------|-------------------------|
|-12------------|-(12)-----12-(12)--------|
|---------------|-------------------------|
|-12------------|-(12)--12---------12-----|
|---------------|-------------------------|
|---------------|-------------------------|
|
|  Q  Q  E Q  E     Q    Q      E   Q   E
|--3--3--3-3--3-|---3----3------3---3---3-|
|--0--0--0-0--0-|---0----0------0---0---0-|
|--0--0--0-0--0-|---0----0------0---0---0-|
|--0--0--0-0--0-|---0----0------0---0---0-|
|--2--2--2-2--2-|---2----2------2---2---2-|
|--3--3--3-3--3-|---3----3------3---3---3-|


  F
   W               +Q    E  E  +E   Q.
|---------------|-------------------------|
|-10------------|-(10)-----10-(10)--------|
|---------------|------------------10-----|
|-10------------|-(10)--10----------------|
|---------------|-------------------------|
|---------------|-------------------------|
|
|  Q  Q  E Q  E     Q    Q      E   Q   E
|--1--1--1-1--1-|---1----1------1---1---1-|
|--1--1--1-1--1-|---1----1------1---1---1-|
|--2--2--2-2--2-|---2----2------2---2---2-|
|--3--3--3-3--3-|---3----3------3---3---3-|
|--3--3--3-3--3-|---3----3------3---3---3-|
|--1--1--1-1--1-|---1----1------1---1---1-|


  G
   E  Q    E  +H          +H       +E   E  Q
|----------------------|-----------------------|
|----12----------------|------------------12---|
|----------------------|-----------------------|
|-12------12-(12)------|-(12)-----(12)-12------|
|----------------------|-----------------------|
|----------------------|-----------------------|
|
|  Q    Q      E  Q  E     Q   Q    E   Q    E
|--3----3------3--3--3-|---3---3----3---3----3-|
|--0----0------0--0--0-|---0---0----0---0----0-|
|--0----0------0--0--0-|---0---0----0---0----0-|
|--0----0------0--0--0-|---0---0----0---0----0-|
|--2----2------2--2--2-|---2---2----2---2----2-|
|--3----3------3--3--3-|---3---3----3---3----3-|


  F
   E  Q.      +H          +Q.      E  +E   Q.
|----------------------|-------------------------|
|-10-------------------|----------10-(10)--------|
|----------------------|------------------10-----|
|----10------(10)------|-(10)--------------------|
|----------------------|-------------------------|
|----------------------|-------------------------|
|
|  E  E  E E  +E  Q  E    +E  E E  E  +E   Q   E
|----------------------|-------------------------|
|--------1-0--(0)-1----|--------1--0--(0)--1---1-|
|--------------------0-|--(0)-0------------------|
|--3--3----------------|-------------------------|
|----------------------|-------------------------|
|----------------------|-------------------------|


  C                   D      C         G/B   D
  Q.     E +H         H      E E Q     E E E E +Q.     E
|-0------0-(0)------|----------------|-------------------||
|-1------0-(0)------|------------1---|-------------------||
|-------------------|----------------|-------2-(2)-----0-||
|-------------------|-0--------0-----|-------0-(0)-------||
|-------------------|--------3-------|-2-0-2-------------||
|-------------------|----------------|-------------------||
|
| E  E E E +E  E Q    E E Q  Q   E E   E E E E +E  E E E
|-------------------|----------------|-------------------||
|------1-0-(0)-1----|--------------3-|-------------------||
|----0-----------0--|-2-2-2----------|-----------------0-||
|-2-----------------|-0-0-0--5---5---|-------0-(0)-0-2---||
|-------------------|--------3---3---|-2-0-2-------------||
|-------------------|----------------|-------------------||


 Verse
  G
  +W                 +W                 W                W
|------------------|------------------|----------------|-----------------|
|------------------|------------------|----------------|-----------------|
|-(0)--------------|-(0)--------------|----------------|-----------------|
|------------------|------------------|----------------|-----------------|
|------------------|------------------|----------------|-----------------|
|------------------|------------------|----------------|-----------------|
|
|  Q   Q  +E  E Q     Q   Q  +E  E Q    Q  Q  +E  E Q    E E E E E E E E
|------3--(3)------|------3--(3)------|----3--(3)------|-----------3-----|
|------0--(0)-3-0--|------0--(0)-3-0--|----0--(0)-3-0--|-------------3---|
|------------------|------------------|----------------|---------0-----0-|
|------------------|------------------|----------------|-------0---------|
|------------------|------------------|----------------|---2-3-----------|
|--3---------------|--3---------------|-3--------------|-----------------|


  C      G/B   Am                       G
  Gtr III
  E E Q  E E E E   +E  E E E +E  E Q    Q  Q  +E  E Q    E E E E E E E E
|----------------|---------3-(3)------|----------------|-----------------||
|-----3----------|-----3---------3----|-------------3--|-------------1-3-||
|---0--------0---|-------0---------0--|-----------0----|---------0-------||
|----------0-----|--------------------|-5--5--(5)------|-------0---0-----||
|-3------2-----0-|-(0)----------------|-5--5--(5)------|---2-3-----------||
|----------------|--------------------|-3--3--(3)------|-----------------||
|
| Gtr II
| W                 W                   W                H       E E E E
|----------------|--------------------|----------------|-----------------||
|----------------|--------------------|----------------|-----------3---3-||
|----------------|--------------------|----------------|---------0---0---||
|----------------|--------------------|----------------|-----------------||
|----------------|--------------------|----------------|-----------------||
|----------------|--------------------|----------------|-----------------||


 Outro
  Gtr II
  +W               +W
|----------------|------------------|
|-(3)------------|-(3)--------------|
|----------------|------------------|
|----------------|------------------|
|----------------|------------------|
|----------------|------------------|
|
| Gtr III
|  Q   Q  E E Q    +E  E E E E Q  E
|----------------|----------------3-|
|------3--3-3-3--|-(3)---------3----|
|------0--0-0-0--|-(0)-------0------|
|----------------|---------0--------|
|----------------|-----2-3----------|
|--3-------------|------------------|


                                      C      G/B    Am
  W                 W                  H      H
|----------------|------------------|-----------------|
|----------------|------------------|-12--------------|
|----------------|------------------|--------12-------|
|----------------|------------------|-----------------|
|----------------|------------------|-----------------|
|----------------|------------------|-----------------|
|
| Q  Q  +E  E Q    +E  E E E E E Q     Q  Q   E E E E
|----------------|-------------3----|-----------------|
|-3--3--(3)-3-3--|-(3)-----------3--|-----3-----3-3---|
|-0--0--(0)-0-0--|-(0)-------0------|-----0-----0-0---|
|----------------|---------0--------|-----------------|
|----------------|-----2-3----------|--3------2-----0-|
|----------------|------------------|-----------------|


                           C       G/B    Am
   +E   Q    E  +H          H       H
|------------------------|------------------|
|------12----------------|-12---------------|
|-(12)------12-(12)------|---------12-------|
|------------------------|------------------|
|------------------------|------------------|
|------------------------|------------------|
|
|  +E   E E  E  +E  Q.      Q  E E  E E E E
|------------3--(3)------|------------------|
|-------3-3---------3----|-------3------3---|
|------------------------|-----0------0-----|
|------------------------|------------------|
|--(0)-------------------|--3-------2-----0-|
|------------------------|------------------|


                          C       G/B    Am
   +E   Q   E  +H          H       H          +E   Q   E  +H
|-----------------------|------------------|-----------------------|
|------12---------------|-12---------------|------12---------------|
|-(12)-----12-(12)------|---------12-------|-(12)-----12-(12)------|
|-----------------------|------------------|-----------------------|
|-----------------------|------------------|-----------------------|
|-----------------------|------------------|-----------------------|
|
|  +E   Q   E  +E  Q.      Q  E E  E E E E    +E   Q   E  +E  Q.
|-----------3--(3)------|------------------|-----------3--(3)------|
|-------3----------3----|-------3------3---|-------3----------3----|
|-----------------------|-----0------0-----|-----------------------|
|-----------------------|------------------|-----------------------|
|--(0)------------------|--3-------2-----0-|--(0)------------------|
|-----------------------|------------------|-----------------------|


  C       G/B    Am
   H       H          +E   Q   E  +H
|------------------|-----------------------|
|-12---------------|------12---------------|
|---------12-------|-(12)-----12-(12)------|
|------------------|-----------------------|
|------------------|-----------------------|
|------------------|-----------------------|
|
|  Q  E E  E E E E    +E   Q   E  +E  Q.
|------------------|-----------3--(3)------|
|-------3------3---|-------3----------3----|
|-----0------0-----|-----------------------|
|------------------|-----------------------|
|--3-------2-----0-|--(0)------------------|
|------------------|-----------------------|


  C        G/B     Am
   H        H           +E   Q    E  +H
|--------------------|-------------------------|
|-12-----------------|------12-----------------|
|----------12--------|-(12)------12-(12)-------|
|--------------------|-------------------------|
|--------------------|-------------------------|
|--------------------|-------------------------|
|
|  E E E E +E  E E E    +E   E Q      E  E E E
|--------------3-----|-------3-----------3-----|
|----3---3-(3)---3---|---------3-----------3---|
|--0---0-----------0-|--(0)-----------0------0-|
|--------------------|-------------------------|
|--------------------|-------------------------|
|--------------------|-------------------------|


  C        G/B     Am
   H        H           +E   Q    E  +H
|--------------------|-------------------------|
|-12-----------------|------12-----------------|
|----------12--------|-(12)------12-(12)-------|
|--------------------|-------------------------|
|--------------------|-------------------------|
|--------------------|-------------------------|
|
|  E E E E +E  E E E    +E   E Q      E  E E E
|--------------3-----|-------3-----------3-----|
|----3---3-(3)---3---|---------3-----------3---|
|--0---0-----------0-|--(0)-----------0------0-|
|--------------------|-------------------------|
|--------------------|-------------------------|
|--------------------|-------------------------|


  C        G/B     Am
   H        H           +E   Q    E  +H
|--------------------|-------------------------|
|-12-----------------|------12-----------------|
|----------12--------|-(12)------12-(12)-------|
|--------------------|-------------------------|
|--------------------|-------------------------|
|--------------------|-------------------------|
|
|  E E E E +E  E E E    +E   E Q      E  E E E
|--------------3-----|-------3-----------3-----|
|----3---3-(3)---3---|---------3-----------3---|
|--0---0-----------0-|--(0)-----------0------0-|
|--------------------|-------------------------|
|--------------------|-------------------------|
|--------------------|-------------------------|


  C        G/B     Am
   H        H           +E   Q    E  +H
|--------------------|-------------------------|
|-12-----------------|------12-----------------|
|----------12--------|-(12)------12-(12)-------|
|--------------------|-------------------------|
|--------------------|-------------------------|
|--------------------|-------------------------|
|
|  E E E E +E  E E E    +E   E Q      E  E E E
|--------------3-----|-------3-----------3-----|
|----3---3-(3)---3---|---------3-----------3---|
|--0---0-----------0-|--(0)-----------0------0-|
|--------------------|-------------------------|
|--------------------|-------------------------|
|--------------------|-------------------------|


  C        G/B     Am                            C        G/B     Am
   W                    +E   Q    E  +H           H        Q.      E
|--------------------|-------------------------|---------------------|
|--------------------|------12-----------------|-12---------------10-|
|-12-----------------|-(12)------12-(12)-------|----------12---------|
|-12-----------------|-(12)--------------------|---------------------|
|--------------------|-------------------------|---------------------|
|--------------------|-------------------------|---------------------|
|
|  E E E E +E  E E E    +E   E Q      E  E E E    E E E E +E  E E  E
|--------------3-----|-------3-----------3-----|--------------3------|
|----3---3-(3)---3---|---------3-----------3---|----3---3-(3)---3----|
|--0---0-----------0-|--(0)-----------0------0-|--0---0------------0-|
|--------------------|-------------------------|---------------------|
|--------------------|-------------------------|---------------------|
|--------------------|-------------------------|---------------------|


   +E   Q.     H           H        Q.      E
|-----------------------|---------------------|
|-(10)-12-----12\-------|-12---------------10-|
|-------------12\-------|----------12---------|
|-----------------------|---------------------|
|-----------------------|---------------------|
|-----------------------|---------------------|
|
|  +E   E  Q   E  E E E    E E E E +E  E E  E
|-------3---------3-----|--------------3------|
|----------3--------3---|----3---3-(3)---3----|
|--(0)---------0------0-|--0---0------------0-|
|-----------------------|---------------------|
|-----------------------|---------------------|
|-----------------------|---------------------|


                            G
   +E   Q.     +Q     Q      H.       E   E      W
|-------------------------|------------------|----------*|
|-(10)-12-----(12)--------|-12-------12-(12)-|-(12)\----*|
|--------------------12---|-12-----------12--|-(12)\----*|
|-------------------------|-12---------------|--12\-----*|
|-------------------------|------------------|----------*|
|-------------------------|------------------|----------*|
|
|  +E   E  Q    E  E  E E    W                   W
|-------3----------3------|------------------|----------*|
|----------3----------3---|--3---------------|----------*|
|--(0)----------0-------0-|--0---------------|----------*|
|-------------------------|--0---------------|----------*|
|-------------------------|--2---------------|----------*|
|-------------------------|--3---------------|----------*|


Duration Legend
---------------
W - whole; H - half; Q - quarter; E - 8th; S - 16th; T - 32nd; X - 64th; a - acciaccatura
+ - note tied to previous; . - note dotted; .. - note double dotted
Uncapitalized letters represent notes that are staccato (1/2 duration)
Irregular groupings are notated above the duration line
Duration letters will always appear directly above the note/fret number it represents the
duration for.  Duration letters with no fret number below them represent rests.  Multi-
bar rests are notated in the form Wxn, where n is the number of bars to rest for.  Low
melody durations appear below the staff

Tablature Legend
----------------
 h   - hammer-on
 p   - pull-off
 b   - bend
 pb  - pre-bend
 r   - bend release (if no number after the r, then release immediately)
 /\  - slide into or out of (from/to "nowhere")
 s   - legato slide
 S   - shift slide
  - natural harmonic
[n]  - artificial harmonic
n(n) - tapped harmonic
 ~   - vibrato
 tr  - trill
 T   - tap
 TP  - trem. picking
 PM  - palm muting
\n/  - tremolo bar dip; n = amount to dip
 \n  - tremolo bar down
 n/  - tremolo bar up
/n\  - tremolo bar inverted dip
 =   - hold bend; also acts as connecting device for hammers/pulls
 <>  - volume swell (louder/softer)
 x   - on rhythm slash represents muted slash
 o   - on rhythm slash represents single note slash

Misc Legend
-----------
 |  - bar
||  - double bar
||o - repeat start
o|| - repeat end
*|  - double bar (ending)
 :  - bar (freetime)
 $  - Segno
 &  - Coda
Tempo markers -  = BPM(8/16=s8/s16), where s8 = swing 8ths, s16 = swing 16ths
Related for Roll With It tab