Song name
# A B C D E F G H I J K L M N O P Q R S T U V W X Y Z

Oceano - Depths tab

i figured out this song by ear. i've only been able to figure out one guitar though. if 
would like to help me and tab out the other guitar that would be appreciated. im using 
standard notes for the tab because its easier

INTRO (0:00-0:16)
e[0----
B[6----
G[5----
D[(3)--
A[-----
E[-----   play with the rythym of the song. i dont know exactly how many times your 
to hit this, but its a lot and it carries over into the verse. not sure if that 3 is played either

VERSE begins at 0:16, goes from 0:16 to 0:49
e[----------------------------|
B[----------------------------|
G[----------------------------|
D[0-00-0-00-------------------|
A[0-00-0-00-------------------|
E[0-00-0-00-1p0---1p0---1p0---|   (x8)

CHORUS (0:49 to 1:22)
e[17-20-18-17-15-17-13-17-15---|
B[-----------------------------|
G[-----------------------------|
D[-----------------------------|
A[-----------------------------|
E[-----------------------------|   (x2)

tremolo pick these notes with the rythym of the song

verse 1:22 to 1:54
chorus 1:54 to 2:27
verse 2:27 to 2:59
chorus 2:59 to 3:32


SOLO 3:32 to 4:04
e[---------------20-17-------20-17-------20b22r20-18h20p18-17-17h18p17-15-|
B[------17b18r17-------18-17~------18-17~---------------------------------|
G[---14-------------------------------------------------------------------|
D[12----------------------------------------------------------------------|
A[------------------------------------------------------------------------|
E[------------------------------------------------------------------------|

SOLO cont'd
e[15h17p15-13-13h15p13-12~--10-10~---------------20-17------------------|
B[--------------------------------------17b18r17-------18-17-15--17-18--|
G[-----------------------------------14---------------------------------|
D[--------------------------------12------------------------------------|
A[----------------------------------------------------------------------|
E[----------------------------------------------------------------------|

SOLO cont'd
e[17-20-20b22b20-17h18p17-15-15h17p15-13-13h15p13-12-12h13p12-10-12~-10-10~-|
B[--------------------------------------------------------------------------|
G[--------------------------------------------------------------------------|
D[--------------------------------------------------------------------------|
A[--------------------------------------------------------------------------|
E[--------------------------------------------------------------------------|

SOLO end 4:04
e[17-15--------------0-------0---|
B[-------------------6-------6---|
G[-------------------5-------5---|
D[-------------------3-------3---|
A[-------------------------------|
E[-------------------------------|

BREAKDOWN intro 4:21
e[-----------|
B[-----------|
G[-----------|
D[-----------|
A[-----------|
E[6-55-55----|

both guitars play this once but alternating
then bass, then drums

BREAKDOWN 4:26 to 5:18
e[--------------------------------------------|
B[--------------------------------------------|
G[--------------------------------------------|
D[--------------------------------------------|
A[5-44-44-5-4-5-44-44-5-4-1-11-11-1-1-1-11-11-|
E[6-55-55-6-5-6-55-55-6-5-2-22-22-2-2-2-22-22-|  (x4)

e[----------|
B[----------|
G[----------|
D[----------|
A[----------|
E[3-33-3-33-|  (natural harmonics)

BREAKDOWN cont'd
e[-
B[--
G[--
D[--
A[1-
E[2-  keep playing this chord in the rythym of the first part of the breakdown

i havent figured out the solo thingy behind the breakdown yet

SLOWER BREAKDOWN (5:18-6:03)
e[--------------------------------------------------------------|
B[--------------------------------------------------------------|
G[--------------------------------------------------------------|
D[--------------------------------------------------------------|
A[0-00-00-0---------0-00-00-0-----------------------------------|
E[1-11-11-1---------0-00-00-0   (changes to 0's at 6:03, play 0-|s until song fades
Tap to rate this tab
 
# A B C D E F G H I J K L M N O P Q R S T U V W X Y Z