Guitaretab - guitar tabs
Song name
# A B C D E F G H I J K L M N O P Q R S T U V W X Y Z

Of Mice And Men - When You Cant Sleep At Night tab

-------------------------------------------------------------------------------
			     WHEN YOU CAN"T SLEEP AT NIGHT - Of Mice & Men
-------------------------------------------------------------------------------
Tabbed by:cdyt7717
Email: cod7ster@gmail.com

Tuning: standard   
[ Tab from: http://www.guitaretab.com/o/of-mice-and-men/281969.html ]
Intro/Chorus
Guitar 1 acoustic                    \/(can also be a harmonic on the 12th)
e|---0---0-----------------0----0----------0--------|
B|-3---3---3-0---0-3-----0-0------0---0------0---0--|
G|-------------2-----0-2---0------------------------|
D|-------------------------2--2-----2----2-----2----| 
A|-------------------------2------------------------|
E|-------------------------0------------------------|

Verse
Guitar 1
e|-3-----3-----3-----3-----2-----2-----2-----2------|
B|---0-----0-----0-----0-----0-----0-----0-----0----|
G|--------------------------------------------------|
D|-----2-----2-----2-----2-----2-----2-----2-----2--|
A|--------------------------------------------------|
E|--------------------------------------------------|

************************************

| /   slide up
| \   slide down
| h   hammer-on
| p   pull-off
| ~   vibrato
| +   harmonic
| x   Mute note
| b   Bend
| pb  Pre-bend
| br  Bend release
| pbr Pre-bend release
| brb Bend release bend

************************************
Related for When You Cant Sleep At Night tab
×
Best way to learn
"When You Cant Sleep At Night"