Song name
# A B C D E F G H I J K L M N O P Q R S T U V W X Y Z

Offspring - Rise And Fall tab

Song:Rise and Fall
Album:Rise and Fall,Rage and Grace
Artist:The Offspring
Date Tabbed:June,2008
Guitar Tabber:Ryan Manongdo/18/Vancouver,Ca
              rhyezkie@gmail.com(gtalk)
              no_falter0x@yahoo.com(YM,friendster,facebook&myspace)

For any comments,questions or suggestions,just post a comment or PM me.Pilipino Rules!!

If you guys like the half-step down version,just send me a message:)

Gtr.Legends:
b - bend
/ - slide
~ - let it ring

Gtr.Tuning:Standard(Normal)

Intro
e|-------------------------------|
B|-------------------------------|
G|--------77-------------99------| 2x
D|-55-777-77-77--55-777--99-77---|
A|-55-777-55-77--55-777--77-77---|
E|-33-555----55--33-555-----55---|

verse 1:This time you really...
e|----------------------------------------------------------------------------------|
B|----------------------------------------------------------------------------------|
G|--------77--------------77-----99---------------77--------------77-----99---------|
D|-55-7---77-7-----55-7---77-77--99-77-----55-7---77-7-----55-7---77-77--99-77-55---|
A|-55-7---55-7-----55-7---55-77--77-77-----55-7---55-7-----55-7---55-77--77-77-55---|
E|-33-5------5-----33-5------55-----55-----33-5------5-----33-5------55-----55-33---|
                                                                               ..

Chorus:And I don't wanna...
e|------------------------|
B|------------------------|
G|-7777-------9999--------| 2x
D|-7777-7777--9999-7777---|
A|-5555-7777--7777-7777---|
E|------5555-------5555---|

Pre-Verse 2:
e|--------------------------------------------------------|
B|--------------------------------------------------------|
G|----77----77--------99-------------77----77-----99------|
D|-77-77-77-77----77--99-77--55-77---77-77-77-77--99-77---|
A|-77-55-77-55----77--77-77--55-77---55-77-55-77--77-77---|
E|-55----55-------55-----55--33-55------55----55-----55---|

Verse 2:You're in an awful...
Play Verse 1

Repeat Chorus:

Before Bridge:
e|----------------------------------|
B|----------------------------------|
G|----77----77--------99------------|
D|-77-77-77-77----77--99-77--55-7---|
A|-77-55-77-55----77--77-77--55-7---|
E|-55----55-------55-----55--33-5---|


Bridge(Gtr.Solo)
Gtr.1:Play Chorus

Gtr.2:
e|-------------------------------------------------------------------------------------------------------------------|
B|---------------------------------------------------------------7-7/10--------10-12--12/14--12/14-12/14-12/14-------|
G|-------------------------------7-7h9-6b--6h7-6-----6~---7777----------9-11-----------------------------------14~---|
D|------4-4/7---------7b-9b-6-8------------------7h9-----------------------------------------------------------------|
A|-5555--------7b-9b-------------------------------------------------------------------------------------------------|
E|-------------------------------------------------------------------------------------------------------------------|

After solo, 
Gtr.1:Play Pre-Verse 2

Verse 3:They've come to see you...
Play Verse 1

Repeat Chorus:

After Chorus play Pre-Verse 2 2x

Outro:
e|-----------------|
B|-----------------|
G|----------77-----|
D|-55-5~----77-7---|
A|-55-5~----55-7---|
E|-33-3~-------5---|
               .

End...

Rise and Fall Lrics:

Verse 1:
This time you’re really dead
Once followed, but always led
You thought you’d rise above it all
It’s all inside your head
All ripping it up in shreds
I know someday you’re gonna fall

Chorus:
And I don’t wanna say I told you so
But I told you so
Now you’ve lost control
And I don’t wanna be the rise and fall
So gimme more or nothing at all

Verse 2:
You’re in an awful way
Sucked in by what you crave
They just can’t wait to see you crawl
And you can only laugh
Give in to the other half
They’re only tearing down your walls

Repeat Chorus:

Verse 3:
They’ve come to see you rise and fall
They’re only tearing down your walls
They’ve come to see you rise and fall
And I don’t wanna say you’ve lost control

Repeat Chorus:

Tap to rate this tab
 
# A B C D E F G H I J K L M N O P Q R S T U V W X Y Z