Guitaretab - guitar tabs
Song name
# A B C D E F G H I J K L M N O P Q R S T U V W X Y Z

Offspring - Feelings tab

mu mail is bad_men2000@hotmail.com

Intro:
E|-------------------|-------------------|-------------------|
B|-------------------|-------------------|-------------------|
G|--5---------5-5-5--|--5---------5-5-5--|--5---------5-5-5--|
D|--7-7-7-7-7-7-7-7--|--6-6-6-6-6-6-6-6--|--5-5-5-5-5-5-5-5--|
A|-------------------|-------------------|-------------------|
E|-------------------|-------------------|-------------------|

E|-------------------|-------------------|-------------------|
B|-------------------|-------------------|-------------------|
G|--7---------7-7-7--|--7---------7-7-7--|--7---------7-7-7--|
D|--4-4-4-4-4-4-4-4--|--3-3-3-3-3-3-3-3--|--5-5-5-5-5-5-5-5--|
A|-------------------|-------------------|-------------------|
E|-------------------|-------------------|-------------------|

e|-----------------|-------------------------------------------------|
B|-----------------|-------------------------------------------------|
G|-----------------|-------------------------------------------------|
D|--7-7--7--7--7---|---8\9-9-9-9--8\9-9-9-9--8\9-9-9-9--9-9-9-9-9-9--|
A|--7-7--7--7--7---|---8\9-9-9-9--8\9-9-9-9--8\9-9-9-9--9-9-9-9-9-9--|
E|--5-5--5--5--5---|---6\7-7-7-7--6\7-7-7-7--6\7-7-7-7--7-7-7-7-7-7--|


Riff 1:

e|-----------------|-----------------|-----------------|---------------
B|-----------------|-----------------|-----------------|---------------
G|-----------------|-----------------|-----------------|---------------
D|--7-------7-7-7--|--6-------6-6-6--|--5-------5-5-5--|--4-------4-4-4
A|--7-------7-7-7--|--6-------6-6-6--|--5-------5-5-5--|--4-------4-4-4
E|--5-5-5-5-5-5-5--|--4-4-4-4-4-4-4--|--3-3-3-3-3-3-3--|--2-2-2-2-2-2-2

e|-----------------|-----------------|----------------|--------------|
B|-----------------|-----------------|----------------|--------------|
G|-----------------|-----------------|----------------|--------------|
D|--3-------3-3-3--|--5-------5-5-5--|--7-7--7--7--7--|--9--9--9--9--|
A|--3-------3-3-3--|--5-------5-5-5--|--7-7--7--7--7--|--9--9--9--9--|
E|--1-1-1-1-1-1-1--|--3-3-3-3-3-3-3--|--5-5--5--5--5--|--7--7--7--7--|

Part 1: (with Riff 1 2x)

Feelings
Nothing more than feelings
Trying to forget my
Feelings of hate

Imagine
Beating on your face
Trying to forget my
Feelings of hate

Bridge:
F
Feelings
                   C
All my life Iíll feel it
                  D   E
I wish I'd never met you
                      A
You'll make me sick again

F               
Feelings
         C
Oh oh feelings
       D    B
Oh oh feelings
Am
Hate on my mind


Part 2: (with Riff 1 2x)

Feelings
Feelings like I never liked you
Feelings like I want to kill you
Live in my heart

Feelings
Feelings like I wanna deck you
Feelings like I've gotta get you
Out of my life...

Chorus:
F                               
Feelings
          C
Oh oh feelings
       D    E
Oh oh feelings
A
Hateís in my eyes

F                               
Feelings
           C
Oh oh feelings
        D   E
Oh oh feelings
A
You're not very nice


Solo: (with Riff 1 2x)

F                               
Feelings
         C
Oh oh feelings
       D   E
Oh oh feelings
A
Hate on my mind

F                               
Feelings
         C
Oh oh feelings
       D    E
Oh oh feelings
A
Get out of my life

F                               
Feelings
          C
Oh oh feelings
        D   E
Oh oh feelings
A
Get out of my life


Full Lyric
Feelings
Nothing more than feelings
Trying to forget my
Feelings of hate

Imagine
Beating on your face
Trying to forget my
Feelings of hate

Feelings
All my life Iíll feel it
I wish I'd never met you
You'll make me sick again

Feelings
Oh oh feelings
Oh oh feelings
Hate on my mind

Feelings
Feelings like I never liked you
Feelings like I want to kill you
Live in my heart

Feelings
Feelings like I wanna deck you
Feelings like I've gotta get you
Out of my life

Feelings
Oh oh feelings
Oh oh feelings
Hateís in my eyes

Feelings
Oh oh feelings
Oh oh feelings
You're not very nice

Feelings
Oh oh feelings
Oh oh feelings
Hate on my mind

Feelings
Oh oh feelings
Oh oh feelings
Get out of my life

Feelings
Oh oh feelings
Oh oh feelings
Get out of my life

[ Tab from: http://www.guitaretab.com/o/offspring/24554.html ]
Related for Feelings tab