Song name
# A B C D E F G H I J K L M N O P Q R S T U V W X Y Z

Offspring - Hopeless tab

Song Title: Hopeless
Artist: The Offspring / Manic Subsidal
Album: We Got Power, Volume 2 - Party Animal
Year: 1984

-------------------------------------------------------------------------

Verse

e|-------------------------------|
B|-------------------------------|
G|--55-66-55-8-7-5-----66--------|
D|--55-66-55-8-7-5--88-66-88-33--| (x2) 
A|--33-44-33-6-5-3--88-44-88-33--|
E|------------------66----66-11--|

e|-----------------------------|
B|-----------------------------|
G|--55-33-55-33-55-88-7-7-7-7--|
D|--55-33-55-33-55-88-7-7-7-7--| 
A|--33-11-33-11-33-66-5-5-5-5--|
E|-----------------------------|

Chorus

e|----------------|-----------------|
B|-----------(x3)-|-----------------|
G|--55-8-5--------|-----------------|
D|--55-8-5-66-55--|--66-55-3-3-3-3--|
A|--33-6-3-66-55--|--66-55-3-3-3-3--|
E|---------44-33--|--44-33-1-1-1-1--|

Pre-Solo

e|----------------|
B|----------------|
G|--55-66-33-333--|
D|--55-66-33-333--| (x4)
A|--33-44-11-111--|
E|----------------|

Solo

e|--7-(tremolo pick)-9--|
B|----------------------|
G|----------------------|
D|----------------------|
A|----------------------|
E|----------------------|

e|------2-3----4-4-----3-3-------2-3------------------|
B|--1-1------------1-1-------1-1-----1-1--4-4--4-3-3--|
G|----------------------------------------------------|
D|----------------------------------------------------|
A|----------------------------------------------------|
E|----------------------------------------------------|


e|------2-3-----4-4--4-6-4------------------------------|
B|--1-1-----1-1------------6-5--4-4--4-6-4-3-4-1-1-1-1--|
G|------------------------------------------------------|
D|------------------------------------------------------|
A|------------------------------------------------------|
E|------------------------------------------------------|

Verse

e|-------------------------------|
B|-------------------------------|
G|--55-66-55-8-7-5-----66--------|
D|--55-66-55-8-7-5--88-66-88-33--| (x2) 
A|--33-44-33-6-5-3--88-44-88-33--|
E|------------------66----66-11--|

e|-----------------------------|
B|-----------------------------|
G|--55-33-55-33-55-88-7-7-7-7--|
D|--55-33-55-33-55-88-7-7-7-7--| 
A|--33-11-33-11-33-66-5-5-5-5--|
E|-----------------------------|

Last Chorus

e|----------------|---------|
B|-----------(x3)-|---------|
G|--55-8-5--------|---------|
D|--55-8-5-66-55--|--66-55--|
A|--33-6-3-66-55--|--66-55--|
E|---------44-33--|--44-33--|

Final Chord

e|-----1-----|
B|-----1-----|
G|-----1-----|
D|-----3-----|
A|-----3-----|
E|-----1-----|

-------------------------------------------------------------------------

Tabbed by: Alberto Luevano (SelfEsteem94)
Tap to rate this tab
 
# A B C D E F G H I J K L M N O P Q R S T U V W X Y Z