Song name
# A B C D E F G H I J K L M N O P Q R S T U V W X Y Z

Oh No Not Stereo - Brothers tab

Artist: Oh No Not Stereo
Song: Brothers
Album: 003
Tabbed by: gustavoaraujo999@hotmail.com

[Intro]
e|-----------------|------|
B|-----------------|------| (turn distortion on )
G|-4-------7-------|------| (on G (355) during  )
D|-4---4---7---5-4-|-[x4]-| (second time through)
A|-2---4---5---5-4-|------|
E|-----2-------3-2-|------|

[Verse 1]
e|-------------------------------|-----------------------------|
B|-------------------------------|-----------------------------|
G|-------------------------------|-----------------------------|
D|-------------------------------|----------------------7-8-9--|
A|---------7-9h10p9--------------|--------7-9h10p9--999--------|
E|-7--9-10-----------222--5-6-7--|--9-10-----------------------|

e|-------------------------|-------------------------------|
B|-----7p8h7--777-9-11-12--|-1212-14-15-14-11~--12~--------|
G|---7---------------------|-------------------------------|
D|-9-----------------------|-------------------------------|
A|-------------------------|-------------------------------|
E|-------------------------|-------------------------------|

[Pre-chorus]
e|------------------|
B|------------------|
G|------------------|
D|------------------|
A|-2-----1-2---1-1--|
E|---2-3-----2------|

[Bridge 1]
e|-------------------------------------------------------------|
B|-------------------------------------------------------------|
G|-33-4-----3----------4-----3-4---33----4-----3---------4~----|
D|-33-4-4-5-3-55-44----4-4-5-3-4-4-33----4-4-5-3-55-44---4~----|
A|-11-2-4-5-1-55-44----2-4-5-1-2-4-11----2-4-5-1-55-44---2~----|
E|------2-3---33-22------2-3-----2---------2-3---33-22---------|

[Verse 2] 
e|-------------------------------|-----------------------------|
B|-------------------------------|-----------------------------|
G|-------------------------------|-----------------------------|
D|-------------------------------|----------------------7-8-9--|
A|---------7-9h10p9--------------|--------7-9h10p9--999--------|
E|-7--9-10-----------222--5-6-7--|--9-10-----------------------|

e|-------------------------|-------------------------------------|
B|-----7p8h7--777-9-11-12--|-1212-14-15-14-11h12p11h12p11h12p11~-|
G|---7---------------------|-------------------------------------|
D|-9-----------------------|-------------------------------------|
A|-------------------------|-------------------------------------|
E|-------------------------|-------------------------------------|

[Pre-chorus]
e|------------------|
B|------------------|
G|------------------|
D|------------------|
A|-2-----1-2---1-1--|
E|---2-3-----2------|
 
[Chorus]
e|-----------------|-----------------|
B|-----------------|-----------------|
G|-4-------7-------|-4-------7-------|
D|-4---4---7---5-4-|-4---4---7---5-4-|
A|-2---4---5---5-4-|-2---4---5---5-4-|
E|-----2-------3-2-|-----2-------3-2-|

[Bridge 2]
e|-------------------------------|--------------------|
B|-------------------------------|--------------------|
G|----------9-11h12p11-----------|--------------------|
D|-9--11-12------------4-4-7-8-9-|-11-12-11-9-8~------|
A|-------------------------------|--------------------|
E|-------------------------------|--------------------|

e|-------------------------------|----------------------|
B|-------------------------------|----------------------|
G|----------9-11h12p11-----------|----------------------|
D|-9--11-12------------4-4-7-8-9-|-11-12-11-9-8h9p8h9p8-|
A|-------------------------------|----------------------|
E|-------------------------------|----------------------|
 
[Bridge 3]
e|-------|-------|-------|-------|----------|
B|-------|-------|-------|-------|----------|
G|-4-----|-4-----|-4-----|-4-----|----------|
D|-4--5--|-4--5--|-4--5--|-4--5--|--555555--|
A|-2--5--|-2--5--|-2--5--|-2--5--|--555555--|
E|----3--|----3--|----3--|----3--|--333333--|

[Chorus x2]
e|-----------------|-----------------|
B|-----------------|-----------------|
G|-4-------7-------|-4-------7-------|
D|-4---4---7---5-4-|-4---4---7---5-4-|
A|-2---4---5---5-4-|-2---4---5---5-4-|
E|-----2-------3-2-|-----2-------3-2-|

e|-----------------|-----------------|
B|-----------------|-----------------|
G|-4-------7-------|-4-------7-------|
D|-4---4---7---5-4-|-4---4---7---5-4-|
A|-2---4---5---5-4-|-2---4---5---5-4-|
E|-----2-------3-2-|-----2-------3-2-|

[Outro 1]
e|---------------------------------------|
B|---------------------------------------|
G|-44444444-555---444444444--5555555-----|
D|-44444444-555---444444444--5555555-----|
A|-22222222-333---222222222--3333333-----|
E|---------------------------------------|

[Outro 2]
e|-----------------------|
B|-----------------------|
G|-4-4-4-4---------------|
D|-4-4-4-4-4-4-4-4-------|
A|-2-2-2-2-4-4-4-4--[x4]-|
E|---------2-2-2-2-------|
Tap to rate this tab
 
# A B C D E F G H I J K L M N O P Q R S T U V W X Y Z