Song name
# A B C D E F G H I J K L M N O P Q R S T U V W X Y Z

Ok Go - White Knuckles tab

Intro:
Guitar 1 (Clean):
e |-----------------------------------------------------------------------7--7----7--7--|
B |--10-10----10-10-10-10----10-10---10-10-------10-10----10-10-10-10----10-10----9--9--|
G |---9--9-----9--9--9--9-----9--9----9--9--------9--9-----9--9--9--9-----9--9----9--9--|
D |---7--7-----7--7--7--7-----7--7----7--7--------7--7-----7--7--7--7-----7--7----7--7--|
A |-------------------------------------------------------------------------------------|
E |-------------------------------------------------------------------------------------|


Verse (Clean):
e|-----------------------------------------------------------|
B|-----------------------------------------------------------|
G|-----------------------------------------------------------|
D|-----------------------------------------------------------|
A|--x-5-x-5-5--x-4-x-4-4-------------------------------------|
E|------------------------x-0-x-0-0-x-0-x-0-0----------------|

Chorus:
Guitar 1 (Clean):
e |-----------------------------------------------------------------------7--7----7--7--|
B |--10-10----10-10-10-10----10-10---10-10-------10-10----10-10-10-10----10-10----9--9--|
G |---9--9-----9--9--9--9-----9--9----9--9--------9--9-----9--9--9--9-----9--9----9--9--|
D |---7--7-----7--7--7--7-----7--7----7--7--------7--7-----7--7--7--7-----7--7----7--7--|
A |-------------------------------------------------------------------------------------|
E |-------------------------------------------------------------------------------------|

Bridge:
Guitar 1 (Very Distorted, minimal bass, minimal fuzz, if that makes any sense) :
e|--------------------------------------------------------|
B|-------------------8-----------------10-----------------|
G|-9-----------5-5-----7------9------------5-5---5--------|
D|---7-7-5h7-7-----7------------7-7-5-7--------7---7------|
A|-----------------------5b-------------------------------|
E|--------------------------------------------------------|


Verse (Clean):
e|-----------------------------------------------------------|
B|-----------------------------------------------------------|
G|-----------------------------------------------------------|
D|-----------------------------------------------------------|
A|--x-5-x-5-5--x-4-x-4-4-------------------------------------|
E|------------------------x-0-x-0-0-x-0-x-0-0----------------|


Chorus:
Guitar 1 (Clean):
e |-----------------------------------------------------------------------7--7----7--7--|
B |--10-10----10-10-10-10----10-10---10-10-------10-10----10-10-10-10----10-10----9--9--|
G |---9--9-----9--9--9--9-----9--9----9--9--------9--9-----9--9--9--9-----9--9----9--9--|
D |---7--7-----7--7--7--7-----7--7----7--7--------7--7-----7--7--7--7-----7--7----7--7--|
A |-------------------------------------------------------------------------------------|
E |-------------------------------------------------------------------------------------|


Solo:
Guitar 2 (Heavily Distorted, MINIMAL BASS, A LOT OF TREBLE. And as little "fuzz," or
amp noise, as possible. The guitar should sound more like a clean, digital instrument with
lot of distortion than a guitar in an amp.):

I'm pretty sure that the part written before the * is how each riff of the solo starts.
for the rest of the solo, I'm not certain yet, but from seeing them live, and through
you can improvise around these notes to make it sound pretty good. (NOTE: This is based 
of the live solo.  When Andy plays the solo live, he plays it an octave lower than on
recording. My guess is that they made it sound higher in the studio, but he played it 
this when recorded.)
e|-------------------------------------------*------------------------------------|
B|-------------------------------------------*-------------------------5----------|
G|-----9p8p7/5----------9p8p7/5--------------*-------------------5-7-8------------|
D|-------------------5----------------5------*-------------5-6-7------------------|
A|-------------5h6h7------------5h6h7--------*--------3-4-5-----------------------|
E|-------------------------------------------*--3-4-5-----------------------------|


Chorus:
Guitar 1 (Clean):
e |-----------------------------------------------------------------------7--7----7--7--|
B |--10-10----10-10-10-10----10-10---10-10-------10-10----10-10-10-10----10-10----9--9--|
G |---9--9-----9--9--9--9-----9--9----9--9--------9--9-----9--9--9--9-----9--9----9--9--|
D |---7--7-----7--7--7--7-----7--7----7--7--------7--7-----7--7--7--7-----7--7----7--7--|
A |-------------------------------------------------------------------------------------|
E |-------------------------------------------------------------------------------------|


Outro Chorus:
(Chorus with the Guitar Solo in the Background. Reproduced here for ease.

Guitar 1 (Clean):
e |-----------------------------------------------------------------------7--7----7--7--|
B |--10-10----10-10-10-10----10-10---10-10-------10-10----10-10-10-10----10-10----9--9--|
G |---9--9-----9--9--9--9-----9--9----9--9--------9--9-----9--9--9--9-----9--9----9--9--|
D |---7--7-----7--7--7--7-----7--7----7--7--------7--7-----7--7--7--7-----7--7----7--7--|
A |-------------------------------------------------------------------------------------|
E |-------------------------------------------------------------------------------------|

Guitar 2 (Heavily Distorted, MINIMAL BASS, A LOT OF TREBLE. And as little "fuzz," or
amp noise, as possible. The guitar should sound more like a clean, digital instrument with
lot of distortion than a guitar in an amp.):

e|-------------------------------------------*------------------------------------|
B|-------------------------------------------*-------------------------5----------|
G|-----9p8p7/5----------9p8p7/5--------------*-------------------5-7-8------------|
D|-------------------5----------------5------*-------------5-6-7------------------| 
A|-------------5h6h7------------5h6h7--------*--------3-4-5-----------------------|
E|-------------------------------------------*--3-4-5-----------------------------|

Outro:
Guitar 1 (Very Distorted, minimal bass, minimal fuzz, if that makes any sense) :
e|---------------------------------------------------------|
B|-------------------8------------------10-----------------|
G|-9-----------5-5-----7-------9------------5-5---7b-------|
D|---7-7-5h7-7-----7-------------7-7-5-7--------7---6------| (2X)
A|-----------------------5b--------------------------------|
E|---------------------------------------------------------|


Any questions, email me at Torma616@gmail.com
Tap to rate this tab
 
# A B C D E F G H I J K L M N O P Q R S T U V W X Y Z