Song name
# A B C D E F G H I J K L M N O P Q R S T U V W X Y Z

Ok Go - White Knuckles tab

Ok Go - White Knucles
By:Alvaro
This tab should have some error but I can play as the band White Knucles.

Intro:
GuitarI:
e|--5-5-5-5-5-5-5-5-9--7-9--9--7--7-7-9------| 
B|--5-5-5-5-5-5-5-5-10-8-10-10-8--8-8-10-----|
G|--6-6-6-6-6-6-6-6-9--7-9--9--7--7-7-9------|
D|--7-7-7-7-7-7-7-7--------------------------|
A|-------------------------------------------|
E|-------------------------------------------|

Guitar 2:           
                   *Echo Efect*
e|----5---5---2~~----|
B|----5---5---2~~----|
G|----7---7---4~~----|
D|----7---7---4~~----|
A|----5---5---2~~----|
E|----5---5---2~~----|

Verse:
Andy Play:
e|-----------------------------------------------------------|
B|-----------------------------------------------------------|
G|-----------------------------------------------------------|
D|-----------------------------------------------------------|
A|--x-5-x-5-5--x-4-x-4-4--x-2-x-2-2-x-2-x-2-2----------------|
E|-----------------------------------------------------------|

Chorus:
GuitarI
e|--5-5-5-5-5-5-5-5-9--7-9--9--7--7-7-9------| 
B|--5-5-5-5-5-5-5-5-10-8-10-10-8--8-8-10-----|
G|--6-6-6-6-6-6-6-6-9--7-9--9--7--7-7-9------|
D|--7-7-7-7-7-7-7-7--------------------------|
A|-------------------------------------------|
E|-------------------------------------------|

Guitar 2:           
                   *Echo Efect*
e|----5---5---2~~----|
B|----5---5---2~~----|
G|----7---7---4~~----|
D|----7---7---4~~----|
A|----5---5---2~~----|
E|----5---5---2~~----|

Solo I: 
Guitar I:
e|------------------------------------------------------|
B|-------------------8------------------8---------------|
G|-9-----------5-5-----7------9-----------5-5-----------|
D|---7-7-5-7-7-----7------------7-7-5-7-------7--7------|
A|-----------------------5b-----------------------------|
E|------------------------------------------------------|

Verse:
Andy Play:
e|-----------------------------------------------------------|
B|-----------------------------------------------------------|
G|-----------------------------------------------------------|
D|-----------------------------------------------------------|
A|--x-5-x-5-5--x-4-x-4-4--x-2-x-2-2-x-2-x-2-2----------------|
E|-----------------------------------------------------------|

Chorus:
GuitarI:
e|--5-5-5-5-5-5-5-5-9--7-9--9--7--7-7-9------| 
B|--5-5-5-5-5-5-5-5-10-8-10-10-8--8-8-10-----|
G|--6-6-6-6-6-6-6-6-9--7-9--9--7--7-7-9------|
D|--7-7-7-7-7-7-7-7--------------------------|
A|-------------------------------------------|
E|-------------------------------------------|

Guitar 2:           
                   *Echo Efect*
e|----5---5---2~~----|
B|----5---5---2~~----|
G|----7---7---4~~----|
D|----7---7---4~~----|
A|----5---5---2~~----|
E|----5---5---2~~----|

SoloII:
Very hard that solo, I'm not completely confident that this right.
e|--7p5h7p5---------7p5h7p5---------------------3h5p3--------------3h5p3--|
B|----------7p5h7p5---------7p5h7p5-------3h5p3--------------3h5p3--------|
G|----------------------------------3h5p3--------------3h5p3--------------|
D|------------------------------------------------------------------------|
A|------------------------------------------------------------------------|
E|------------------------------------------------------------------------|

Bridge:
GuitarI:
      *Echo Efect*
e|----5---5---2~~----|
B|----5---5---2~~----|
G|----7---7---4~~----|
D|----7---7---4~~----|
A|----5---5---2~~----|
E|----5---5---2~~----|

Chorus:
GuitarI:
e|--5-5-5-5-5-5-5-5-9--7-9--9--7--7-7-9------| 
B|--5-5-5-5-5-5-5-5-10-8-10-10-8--8-8-10-----|
G|--6-6-6-6-6-6-6-6-9--7-9--9--7--7-7-9------|
D|--7-7-7-7-7-7-7-7--------------------------|
A|-------------------------------------------|
E|-------------------------------------------|

Guitar 2:           
                   *Echo Efect*
e|----5---5---2~~----|
B|----5---5---2~~----|
G|----7---7---4~~----|
D|----7---7---4~~----|
A|----5---5---2~~----|
E|----5---5---2~~----|

Outro:
GuitarI:
e|--7p5h7p5---------7p5h7p5---------------------3h5p3--------------3h5p3--|
B|----------7p5h7p5---------7p5h7p5-------3h5p3--------------3h5p3--------|
G|----------------------------------3h5p3--------------3h5p3--------------|
D|------------------------------------------------------------------------|
A|------------------------------------------------------------------------|
E|------------------------------------------------------------------------|

GuitarII:
e|--5-5-5-5-5-5-5-5-9--7-9--9--7--7-7-9------| 
B|--5-5-5-5-5-5-5-5-10-8-10-10-8--8-8-10-----|
G|--6-6-6-6-6-6-6-6-9--7-9--9--7--7-7-9------|
D|--7-7-7-7-7-7-7-7--------------------------|
A|-------------------------------------------|
E|-------------------------------------------|

Final Solo:
GuitarI:

e|---------------------------------------------------------|
B|-------------------8-----------------8-------------------|
G|-9-----------5-5-----7----9---------------5-5---7b-------|
D|---7-7-5-7-7-----7----------7-7-5-7-----------7---6------|
A|-----------------------5b--------------------------------|
E|---------------------------------------------------------|

It was one my tab, any error send to my email: alvinhorafael@hotmail.com

Thanks for reading!
Tap to rate this tab
 
# A B C D E F G H I J K L M N O P Q R S T U V W X Y Z