One Piece - Binks Sake tab

Yohohoho..!!
SKULL JOKEeh..!!




|----------------9---------7|----------------9-------------|
|---9--12-12-12-----12--9---|---9--12-12-12-----12--9--5---|
|---------------------------|------------------------------|
|---------------------------|------------------------------|
|---------------------------|------------------------------|
|---0-----------------------|---0--------------------------|
  
									

|---7-----------------------|---7--------------------------|
|------9--7--5-----5--7-----|------9--7--5-----5-----------|
|---------------6-----------|---------------6-----4--------|
|---------------------------|------------------------------|
|---0-----------------------|---0--------------------------|
|---------------------------|------------------------------|
    


|--------------------5--4----------------|
|------5----------5--------5--7--9--5----|
|---6-----4----6-------------------------|
|----------------------------------------|
|----------------------------------------|
|----------------------------------------|
  
 					
Repeat it again..!!
Thanks.!!

By: whosdifferent
Tap to rate this tab
 
# A B C D E F G H I J K L M N O P Q R S T U V W X Y Z