Song name
# A B C D E F G H I J K L M N O P Q R S T U V W X Y Z

One Piece - Die Legende tab

-------------------------------------------------------------------------------
                             Die Legende - One Piece
-------------------------------------------------------------------------------
Tabbed by: Revyn / Kurihou
E-mail: revyn.ftw@hotmail.com

Tuning: Standart

                                     :->
e|---|---|---|---|----|------|------|------------------------------------|
B|---|---|---|---|----|------|------|------------------------------------|
G|---|---|---|---|-10-|-(10)-|-(10)-|-----10-----10---10-----8-----8---8-|
D|---|---|---|---|-10-|-(10)-|-(10)-|-----10-----10---10-----8-----8---8-|
A|---|---|---|---|-8--|-(8)--|-(8)--|-8-8-8--8-8-8--8-8--6-6-6-6-6-6-6-6-|
E|---|---|---|---|----|------|------|------------------------------------|

                               ->4x :->
e|---------------------------------|----------------------------------|
B|---------------------------------|----------------------------------|
G|-----7-----7---7-------6---6-6---|-10---------------8---------------|
D|-----7-----7---7-------6---6-6---|-10---------------8---------------|
A|-5-5-5-5-5-5-5-5-4-4-4-4-4-4-4---|-8--8-8-8-8-8-8-8-6-6-6-6-6-6-6-6-|
E|---------------------------------|----------------------------------|

                             ->5x                   :->                  ->4x
e|-------------------------------|-----------------|-------------------------|
B|-------------------------------|-----------------|-------------------------|
G|-7---------------6-----6---6-6-|-5-5-5-5-5-5-5-5-|-10---10-8---7--7---7-6--|
D|-7---------------6-----6---6-6-|-5-5-5-5-5-5-5-5-|-10---10-8---7--7---7-6--|
A|-5-5-5-5-5-5-5-5-4-4-4-4-4-4-4-|-3-3-3-3-3-3-3-3-|-8----8--6---5--5---5-4--|
E|-------------------------------|-----------------|-------------------------|

  :->                      ->4x
e|----8------8------8------8---|----------------------------------|
B|-6---------------------------|----------------------------------|
G|--------8------7------6------|-10---------------8---------------|
D|-----------------------------|-10---------------8---------------|
A|-----------------------------|-8--8-8-8-8-8-8-8-6-6-6-6-6-6-6-6-|
E|-----------------------------|----------------------------------|

                                                    :->                  ->4x
e|-------------------------------|-----------------|-------------------------|
B|-------------------------------|-----------------|-------------------------|
G|-7---------------6-----6---6-6-|-5-5-5-5-5-5-5-5-|-10---10-8---7--7---7-6--|
D|-7---------------6-----6---6-6-|-5-5-5-5-5-5-5-5-|-10---10-8---7--7---7-6--|
A|-5-5-5-5-5-5-5-5-4-4-4-4-4-4-4-|-3-3-3-3-3-3-3-3-|-8----8--6---5--5---5-4--|
E|-------------------------------|-----------------|-------------------------|

  :->                                                             ->2x
e|------------------------------------|-------------------------------|
B|------------------------------------|-------------------------------|
G|-----10-----10---10-----8-----8---8-|-----7-----7---7-------6---6-6-|
D|-----10-----10---10-----8-----8---8-|-----7-----7---7-------6---6-6-|
A|-8-8-8--8-8-8--8-8--6-6-6-6-6-6-6-6-|-5-5-5-5-5-5-5-5-4-4-4-4-4-4-4-|
E|------------------------------------|-------------------------------|


e|------------3---------------------------------------------3------------|
B|-/6~--6-4-6----4-----4~--/6~--6-4---4----------/6~--6-4-6----4-----4~--|
G|-----------------4-5--------------5----5-3-5~------------------4-5-----|
D|-----------------------------------------------------------------------|
A|-----------------------------------------------------------------------|
E|-----------------------------------------------------------------------|

                                       :->
e|-/4~--4-3-4-6--4-6-8--6-8-13~~~-----|------------------------------------|
B|------------------------------------|------------------------------------|
G|------------------------------------|-----10-----10---10-----8-----8---8-|
D|------------------------------------|-----10-----10---10-----8-----8---8-|
A|------------------------------------|-8-8-8--8-8-8--8-8--6-6-6-6-6-6-6-6-|
E|------------------------------------|------------------------------------|

                             ->5x
e|-------------------------------|-------------------------------|
B|-------------------------------|-------------------------------|
G|-----7-----7---7-------6---6-6-|-----5-----5---5--6--------10\-|
D|-----7-----7---7-------6---6-6-|-----5-----5---5--6--5--6--10\-|
A|-5-5-5-5-5-5-5-5-4-4-4-4-4-4-4-|-3-3-3-3-3-3---3--4--5--6--8 \-|
E|-------------------------------|---------------------3--4------|


************************************

| /   slide up
| \   slide down
| h   hammer-on
| p   pull-off
| ~   vibrato
| +   harmonic
| x   Mute note
| b   Bend
| pb  Pre-bend
| br  Bend release
| pbr Pre-bend release
| brb Bend release bend

************************************
Tap to rate this tab
 
# A B C D E F G H I J K L M N O P Q R S T U V W X Y Z