Song name
# A B C D E F G H I J K L M N O P Q R S T U V W X Y Z

One Piece - We Are tab

Intro



E|-----------------------------------------------------------|
B|------------------------------------------9-8--------------|
G|------------8-8------8--10-----8--10----------8------------|
D|------8-8---------8----------------------------------------|
A|-----------------------------------------------------------|
E|-----------------------------------------------------------|


E|-------------------------------------------------------------------|
B|-----------------------------------------9-8-----------------------|
G|----------------8-8-------8--10--10----------10--8-------10--8-----|
D|------8-8-8---------8----------------------------------------------|
A|-------------------------------------------------------------------|
E|-------------------------------------------------------------------|


Verse

E|-------------------------------------------------------------------------|
B|-------------------------------------------------------------------------|
G|------------------------6-6-----4----------------------------------------|
D|--8-8----6---5----------------------8--6--8------8-8----6---5------------|
A|-----------------8---6-----------------------------------------8---6-----|
E|-------------------------------------------------------------------------|


    
E|-----------------------------------------------------------------------|
B|-----------------------------------------------------------------------|
G|-----------------------------------------------------8--8--10---7--8---|
D|-----------8--6---6--------8-8---6---5---------------------------------|
A|--6--8--9-------9----------------------8---6----6-6--------------------|
E|-----------------------------------------------------------------------|



E|----------------------------------------------------------------------|
B|----------------------------------------------------------------------|
G|---------------8--8--7------------------------------------------------|
D|----------------------------10---8---10------5-5--6--8--5-------------|
A|-----6-6-----------------------------------------------------8--6-----|
E|----------------------------------------------------------------------|


E|----------------------------------------------------------------------|
B|-----------------------6-6--4-----------------------------------------|
G|----------5--6------------------8-8---5-------------------------------|
D|-------8--------------------------------------8-----8---5---3---1-----|
A|----------------------------------------------------------------------|
E|----------------------------------------------------------------------|


   

 
E|-------------------------------------------------------------------------|
B|-------------------------------------------------------------------------|
G|-----5--6-6----10--10--9------9--10--12--13-------13-13--12-12---8-8-10--|
D|--8----------------------------------------------------------------------|
A|-------------------------------------------------------------------------|
E|-------------------------------------------------------------------------|




Chorus

E|-----------------------------------------------------------|
B|------------------------------------------9-8--------------|
G|------------8-8------8--10-----8--10----------8------------|
D|------8-8---------8----------------------------------------|
A|-----------------------------------------------------------|
E|-----------------------------------------------------------|


E|-------------------------------------------------------------------|
B|-----------------------------------------9-8-----------------------|
G|---------------8-8-------8--10--10-----------10--8-----------------|
D|------8-8-8------------8-------------------------------------------|
A|-------------------------------------------------------------------|
E|-------------------------------------------------------------------|



E|-----------------------------------------------------------|
B|-----------------8-----------------------------------------|
G|--8-8-8-8----3-----10-----7-7-7-7---5----3---5-------------|
D|-----------------------------------------------------------|
A|-----------------------------------------------------------|
E|-----------------------------------------------------------|



E|-----------------------------------------------------------|
B|-----------------------------------------------------------|
G|-----8-------10----8--10--11-------10--8-------------------|
D|---6------8------------------------------------------------|
A|-----------------------------------------------------------|
E|-----------------------------------------------------------|

WE ARE!!!!
    

I Hope you Enjoy it! This is for the ones who love One Piece like me!

                                                            Gongas867
Tap to rate this tab
 
# A B C D E F G H I J K L M N O P Q R S T U V W X Y Z