Guitaretab - guitar tabs
Song name
# A B C D E F G H I J K L M N O P Q R S T U V W X Y Z

Open Hand - Dream tab

Open Hand- The dream
Dropped D 
EBGDAD

Guitar 1's parts
Intro/Verse:

E|-------------------------------|
B|-------------------------------|
G|-------------------------------|
D|-----------------------2-2-2-2-| X12
A|-0-0-0-8-8-8-7-7-7-3-3-3-3-3-3-|
D|-------------------------------|
PM . . . . . . . . . . . . . . .

E|--------------------------------------|
B|--------------------------------------|
G|-------10-10-10-9-9-9-5-5-5-5-5-5-5-5-|
D|-7-7-7--x--x--x-x-x-x-x-x-x-x-x-x-x-x-|
A|-7-7-7--8--8--8-7-7-7-3-3-3-3-3-3-3-3-|
D|-7-7-7--------------------------------|

E|-------------------------------|
B|-------------------------------|
G|-------------------------------|
D|-----------------------2-2-2-2-| X4
A|-0-0-0-8-8-8-7-7-7-3-3-3-3-3-3-|
D|-------------------------------|
PM . . . . . . . . . . . . . . .

Chorus:
E|-------------------------------------------------| \
B|-------------------------------------------------|  \
G|-------------------------------------------------|   |
D|-7-7-7-7-7-7-7-7-3-3-3-3-3-3-3-3-7-7-7-7-7-7-7-7-|   |
A|-7-7-7-7-7-7-7-7-3-3-3-3-3-3-3-3-7-7-7-7-7-7-7-7-|   |
D|-7-7-7-7-7-7-7-7-----------------7-7-7-7-7-7-7-7-|   |
CONT.                                                  | X2
E|----------------|                                    |
B|----------------|                                    |
G|----------------|                                    |
D|-22222222222222-|                                    |  
A|-33333333333333-|                                   /
D|----------------|                                  /
PM ............

VERSE:
E|-------------------------------|
B|-------------------------------|
G|-------------------------------|
D|-----------------------2-2-2-2-| X7
A|-0-0-0-8-8-8-7-7-7-3-3-3-3-3-3-|
D|-------------------------------|
PM . . . . . . . . . . . . . . .

E|-------------------------|
B|-------------------------|
G|-------------------------|
D|-2-2-2-2-2-2-2-2-2-2-2-2-|
A|-3-3-3-3-3-3-3-3-3-3-3-3-|
D|-------------------------|
PM . . . . . . . . . . . .

Chorus?:
E|-----------------------------------------|
B|-----------------------------------------|
G|-----------------------------------------|
D|-7-7-7-7-7-7-7-7-7-7-7-7-2-2-5-5-5-5-5-5-|
A|-7-7-7-7-7-7-7-7-7-7-7-7-2-2-5-5-5-5-5-5-|
D|-7-7-7-7-7-7-7-7-7-7-7-7-2-2-5-5-5-5-5-5-|

E|------------------------------------------|
B|------------------------------------9PH---|
G|--------------------------------------9PH-|
D|-7-7-7-7-7-7-7-7-7-7-7-7-2-2-5-5-5-9PH----|
A|-7-7-7-7-7-7-7-7-7-7-7-7-2-2-5-5-5--------|
D|-7-7-7-7-7-7-7-7-7-7-7-7-2-2-5-5-5--------|

Breakdown:
E|-------------------------------------------------------|
B|-------------------------------------------------------|
G|---4---0~-------4---0---0-----4-0~----4---0---0--4---0~|
D|-2---2------2-2---2---2---2-3------3-3--3---3---2--2---|
A|-------------------------------------------------------|
D|-------------------------------------------------------|

E|------------------------------|
B|------------------------------|
G|----4---0--0-----4---0--------|
D|-2-2--2---2--2----------------|
A|---------------3---3----------|
D|------------------------------|

Verse:
E|--3-0~-3-0~-3-0~-------|
B|------------------5PH--|
G|-----------------5PH---|
D|-2----3----2----5PH----| X2
A|-----------------------|
D|-----------------------|

RIFF:
E|-------------------------------------------------------------|
B|-------------------------------------------------------------|
G|-4-5-4-0--4-5-4-0--4-5-4-------------4-5-4-0--4-5-4-0--4-5-4-|
D|-------------------------5-5-3-3-3-3-------------------------|
A|-------------------------5-5-3-3-3-3-------------------------|
D|-------------------------5-5-3-3-3-3-------------------------|

E|-------------------|
B|-------------------|
G|-------------5-4-5-|
D|-5-5-3-3-3-3-------|
A|-5-5-3-3-3-3-------|
D|-5-5-3-3-3-3-------|

E|-------------------------------------------------------------|
B|-------------------------------------------------------------|
G|-4-5-4-0--4-5-4-0--4-5-4-------------4-5-4-0--4-5-4-0--4-5-4-|
D|-------------------------5-5-3-3-3-3-------------------------|
A|-------------------------5-5-3-3-3-3-------------------------|
D|-------------------------5-5-3-3-3-3-------------------------|

E|-------------|
B|-------------|
G|-------------|
D|-5-5-3-3-3-3-|
A|-5-5-3-3-3-3-|
D|-5-5-3-3-3-3-|

2nd chorus outro:
E|-------------3---|
B|-0-1-0---0-1---1-|
G|-------0---------|
D|-----------------| xtill the end of song. which is a lot.
A|-----------------|
D|-----------------|
[ Tab from: http://www.guitaretab.com/o/open-hand/148942.html ]
===============================
GUITAR 2's parts:
INTRO:
E|-12~-------12-| 
B|-12~-12-12----|
G|-12~----------|
D|--------------| x4
A|--------------|
D|--------------|

E|-------------------15----|
B|-12-13-12----12-13----13-|
G|----------12-------------|
D|-------------------------| x A bunch
A|-------------------------|
D|-------------------------|

E|--------------------------------------|
B|--------------------------------------|
G|-------10-10-10-9-9-9-5-5-5-5-5-5-5-5-|
D|-7-7-7--x--x--x-x-x-x-x-x-x-x-x-x-x-x-|
A|-7-7-7--8--8--8-7-7-7-3-3-3-3-3-3-3-3-|
D|-7-7-7--------------------------------|

E|-------------------15----|
B|-12-13-12----12-13----13-|
G|----------12-------------|
D|-------------------------| x 4
A|-------------------------|
D|-------------------------|

CHORUS: x2
E|-------------------------------------------------------------------------|
B|-------------------------------------------------------------------------|
G|-16-16-16-16-16-16-16-16-12-12-12-12-12-12-12-12-16-16-16-16-17-17-17-17-|
D|--x--x--x--x--x--x--x--x--x--x--x--x--x--x--x--x--x--x--x--x--x--x--x--x-|
A|-14-14-14-14-14-14-14-14-10-10-10-10-10-10-10-10-14-14-14-14-15-15-15-15-|
D|-------------------------------------------------------------------------|

E|---------------------------------------------------|
B|---------------------------------------------------|
G|-19------------------------------------------------|
D|--x-3---------3---------3---------3----------------|
A|-17-3-3-3-3-3-3-3-3-3-3-3-3-3-3-3-3-3-3-3-3--------|
D|----3-3-3-3-3-3-3-3-3-3-3-3-3-3-3-3-3-3-3-3-1/12\1-|
PM    . . . . .   . . . . . . . . .   . . . .

VERSE:
E|-------------------15----|
B|-12-13-12----12-13----13-|
G|----------12-------------|
D|-------------------------| x a bunch
A|-------------------------|
D|-------------------------|

E|----------------|
B|----------------|
G|----------------|
D|-33333333333333-|
A|-33333333333333-|
D|-33333333333333-|
PM ............

Chorus?:
E|-----------------------------------------|
B|-----------------------------------------|
G|-----------------------------------------|
D|-7-7-7-7-7-7-7-7-7-7-7-7-2-2-5-5-5-5-5-5-|
A|-7-7-7-7-7-7-7-7-7-7-7-7-2-2-5-5-5-5-5-5-|
D|-7-7-7-7-7-7-7-7-7-7-7-7-2-2-5-5-5-5-5-5-|

E|------------------------------------------|
B|------------------------------------9PH---|
G|--------------------------------------9PH-|
D|-7-7-7-7-7-7-7-7-7-7-7-7-2-2-5-5-5-9PH----|
A|-7-7-7-7-7-7-7-7-7-7-7-7-2-2-5-5-5--------|
D|-7-7-7-7-7-7-7-7-7-7-7-7-2-2-5-5-5--------|

Breakdown x2
E|--------------------------------------------------------------------|
B|------8------8-------------8-----8-------------8----8-------------8-|
G|--------------------------------------------------------------------|
D|---5-----5-----5---5---7-----7-----7---7---5-----5----5---5---7-----|
A|-0---0-----0-----0---8---8-----8-----8---0---0-----0----0---8---8---|
D|--------------------------------------------------------------------|

Clean part before heavy Gtr.1 riff
E|-------------------------|
B|---------0-------0-0-0-0-|
G|---------4-------4-4-4-4-| 
D|-2-2-2-2-2-2-2-2-2-2-2-2-| x2
A|-3-3-3-3-3-3-3-3-3-3-3-3-|
D|-------------------------|

RIFF:
E|-------------------------------------------------------------|
B|-------------------------------------------------------------|
G|-4-5-4-0--4-5-4-0--4-5-4-------------4-5-4-0--4-5-4-0--4-5-4-|
D|-------------------------5-5-3-3-3-3-------------------------|
A|-------------------------5-5-3-3-3-3-------------------------|
D|-------------------------5-5-3-3-3-3-------------------------|

E|-------------------|
B|-------------------|
G|-------------5-4-5-|
D|-5-5-3-3-3-3-------|
A|-5-5-3-3-3-3-------|
D|-5-5-3-3-3-3-------|

E|-------------------------------------------------------------|
B|-------------------------------------------------------------|
G|-4-5-4-0--4-5-4-0--4-5-4-------------4-5-4-0--4-5-4-0--4-5-4-|
D|-------------------------5-5-3-3-3-3-------------------------|
A|-------------------------5-5-3-3-3-3-------------------------|
D|-------------------------5-5-3-3-3-3-------------------------|

E|-------------|
B|-------------|
G|-------------|
D|-5-5-3-3-3-3-|
A|-5-5-3-3-3-3-|
D|-5-5-3-3-3-3-|

2nd Chorus: repeat until end *gradually fading out*
E|-----------------------------------------------------|
B|-----------------------------------------------------|
G|-----------------------------------------------------|
D|-7-7-7-7-7-7-7-7-7-7-7-7-5-5-5-5-5-5-3-3-3-3-3-3-3-3-|
A|-7-7-7-7-7-7-7-7-7-7-7-7-5-5-5-5-5-5-3-3-3-3-3-3-3-3-|
D|-7-7-7-7-7-7-7-7-7-7-7-7-5-5-5-5-5-5-3-3-3-3-3-3-3-3-|
Related for Dream tab
×
Dream