Song name
# A B C D E F G H I J K L M N O P Q R S T U V W X Y Z

Operation Ivy - Knowledge tab

From: trebor@alpha2.csd.uwm.edu (Robert W Kubiak II)

KNOWLEDG.TAB
        Since the tab for Green Day's cover of Knowledge was recently posted, 
here is the original by Operation Ivy.  Mostly power chords, but a really 
great riff too. The D,C,G progression goes throughout the whole song 
(verse and refrain) if you want all the lyrics, they are in the CD.
    	Tune down one whole step for this song D,G,C,F,A,D. Or to play in
standard tuning, play C,Bb,F and play the riff off of 3rd position.
Transcribed by Robert W. Kubiak II  8)
--------------------------------------------------------------------

   D power chord                             C power chord             

  I know that things are getting tougher when you can't get the top off the
e:x-----------------------------------------------x--------------------------|
B:x-----------------------------------------------x--------------------------|
G:7-----------------------------------------------5--------------------------|
D:7-----------------------------------------------5--------------------------|
A:5-----------------------------------------------3--------------------------|
E:x-----------------------------------------------x--------------------------|


  G power chord

  bottom of the barrel.  Wide open road of my future now... it's looking fuck
e:x----------------------x---------------------------x------x----------------|
B:x----------------------x---------------------------x------x----------------|
G:x----------------------7---------------------------5------x----------------|
D:5----------------------7---------------------------5------5----------------|
A:5----------------------5---------------------------3------5----------------|
E:3----------------------x---------------------------x------3----------------|




  ing narrow.  All I know is that I don't know, all I I know is that I don't
e:------------x---------------------------------x----------------------x-----|
B:------------x---------------------------------x----------------------x-----|
G:------------7---------------------------------5----------------------x-----|
D:------------7---------------------------------5----------------------5-----|
A:------------5---------------------------------3----------------------5-----|
E:------------x---------------------------------x----------------------3-----|


                                                    

  know nothing.       (riff repeat 2x)
e:--------------------------------------------------|
B:--------------------8-7-5-------8-7-5------6-6-5--|
G:---------------------------7-777------7-777-----5-|
D:-------------------------------------------------5|
A:--------------------------------------------------|
E:--------------------------------------------------|
Tap to rate this tab
# A B C D E F G H I J K L M N O P Q R S T U V W X Y Z