Song name
# A B C D E F G H I J K L M N O P Q R S T U V W X Y Z

Operation Ivy - Knowledge tab

Song:Knowledge
Artist:Operation Ivy
Tabbed By:bja12

Main Riff:
--------------------------------------------|
--------------------------------------------|
-5-5-5-5-5-5-5-5-3-3-3-3--------------------|
-5-5-5-5-5-5-5-5-3-3-3-3-3-3-3-3------------|
-3-3-3-3-3-3-3-3-1-1-1-1-3-3-3-3------------|
-------------------------1-1-1-1------------|

Solo:
---------------------------------|
---------------------------------|
---------------------------------|
-3-2-0-------3-2-0-----1-1-0-----|
-------3-3-3------3-3-3-----1----|
------------------------------1--|

Outro:
---------------------|
---------------------|
-5-5-5-5-------------|
-5-5-5-5-------------|
-3-3-3-3-------------|
---------------------|

if you have any questions or if there is something wrong please feel free to e-mail me 
holdencaulfield92@hotmail.com
Tap to rate this tab
# A B C D E F G H I J K L M N O P Q R S T U V W X Y Z