Song name
# A B C D E F G H I J K L M N O P Q R S T U V W X Y Z

Orchid - Eyes Behind The Wall tab

-------------------------------------------------------------------------------
                 ORCHID - Eyes Behind the Wall (part 1)
-------------------------------------------------------------------------------
Tabbed by: Johannes Lange
E-mail: joh-dot-lange-at-gmx-dot-de

As there was no tab for this so far, I tried to do it myself.
For now it is only the first part (to about 3:20), but I thought I'd
share it already. I hope to get the rest of it soon, too, then I'll
update this one.

Notice: I don't own any of the music, nor have I written any of it,
all credit goes to ORCHID. This is just my attempt to reproduce what 
they are playing.
If you find any mistakes (there will be...) or have suggestions, just
let me know.

Tuning: D tuning (one whole step down from standard)

#1                                    1,3)        2,4)                     4x
D||----------------------------------|-----------|--------------------------||
A||----------------------------------|-----------|--------------------------||
F||o---------------------------------|-----------|-------------------------o||
C||o---------------3-2-2h3p2---------|------3----|-3h5-555-2h3p2h3---------o||
G||--3h5-5-5-5-3-5-----------3-------|----3---3--|--------------------------||
D||----------------------------33333-|-3h5-------|--------------------------||


#2
D|---------------------------------------------------------------------------|
A|---------------------------------------------------------------------------|
F|--5/7777\----5h7p5h7p------------------------------------------------------|
C|--5/7777\-----------------3/5555\------12-10-9-10--------------------------|
G|--3/5555\-----------------3/5555\------10--8-7--8--------------------------|
D|--------------------------1/3333\------------------------------------------|


#3
D|----------------10b--------------------------------------------------------|
A|---------------------------------------------------------------------------|
F|--5/7777\------------------------------------------------------------------|
C|--5/7777\-----------------3/5555\------12-10-9-5---------------------------|
G|--3/5555\-----------------3/5555\------10--8-7-3---------------------------|
D|--------------------------1/3333\------------------------------------------|


#4                                      1)              2)
D||------------------------------------|---------------|--------------------||
A||------------------------------------|---------------|--------------------||
F||o-5/7777\---------------------------|---------------|-------------------o||
C||o-5/7777\-----------------3/5555\---|---12-10-9-10--|----12-10-9-5------o||
G||--3/5555\-----------------3/5555\---|---10--8-7--8--|----10--8-7-3-------||
D||--------------------------1/3333\---|---------------|--------------------||


#5
D|---------------------------------------------------------------------------|
A|---------------10\---------------------------------------------------------|
F|--5/7777\------10\---------------------------------------------------------|
C|--5/7777\------10\--------3/5555\------12-10-9-10--------------------------|
G|--3/5555\-----------------3/5555\------10--8-7--8--------------------------|
D|--------------------------1/3333\------------------------------------------|


#6
D|---------------------------------------------------------------------------|
A|---------------------------------------------------------------------------|
F|--5/7777\----5h7p5h7p------------------------------------------------------|
C|--5/7777\-----------------3/5555\------12-10-9-5---------------------------|
G|--3/5555\-----------------3/5555\------10--8-7-3---------------------------|
D|--------------------------1/3333\------------------------------------------|


#7                          1)   2)        3)      3x
D||------------------------|----|---------|---------||-----------------------|
A||------------------------|----|---------|---------||-----------------------|
F||o-----------------------|----|-----5---|--------o||-----------------------|
C||o-----------------------|----|---7---7-|--------o||-----------------------|
G||--1-1h3p1-0--00---------|-5~-|-5-------|-5~--3~--||--1~-1h3p1--0--3-------|
D||---------------3--3h5p3-|----|---------|---------||-----------------------|


then repeat these: #1, #4, #5, #6, #7

I hope the rest will follow soon...

************* LEGEND ***************
| /   slide up
| \   slide down
| h   hammer-on
| p   pull-off
| ~   vibrato
| b   Bend
************************************
Tap to rate this tab
 
# A B C D E F G H I J K L M N O P Q R S T U V W X Y Z