Song name
# A B C D E F G H I J K L M N O P Q R S T U V W X Y Z

Orden Ogan - We Are Pirates tab

This is the tab for the *FOLK VERSION* although I do believe it's right for most 
of the regualer version as well.

Chords: (you play just varations of these chords)

1st & 2nd Verse:
Am Am E G

Pre Chorus:
     Am        F          C         G
The Black Sky above.. our kingdom beneath
     Am        F          C         G
Die in the waves or live on your knees

Chorus:
      Am                    Em         Am                      G
Come, raise the flag of the fallen, we reign the storm and the seas
     C                     G                     C      G           Am
And live our lives on the brink of death, WE'RE PIRATES! And we are free

The riff goes:

e|--------------------------------------------------------------------|
B|----------------------------------------3-5-3---------0-1-0--0------|
G|-0-2--4-5-4-2-0----0-2--4-5-4-2-0--0-5-------5-4-0---------2--2-0-2-|
D|----------------2----------------------------------2----------------|
A|--------------------------------------------------------------------|
E|--------------------------------------------------------------------|

then:

e|----------------------------8-7h8p7-7-10---------------------8-8-10-12-10-8-7-7-8-10-8-7---|
B|-------10-8h10p8-8-10--------------8----------10-8h10p8-7-10-------------------------------|
G|-9-999----------9-----9-999--------------9-999---------9-----------------------------------|
D|-------------------------------------------------------------------------------------------|
A|-------------------------------------------------------------------------------------------|
E|-------------------------------------------------------------------------------------------|

3rd & 4th Verse:
Same chords as intro, though the picking is different, it's power chords, listen 
to the song you'll figure it out!

Am Am E G

Pre Chorus:
     Am        F          C         G
The Black Sky above.. our kingdom beneath
     Am        F          C         G
Die in the waves or live on your knees

Chorus:
      Am                    Em         Am                      G
Come, raise the flag of the fallen, we reign the storm and the seas
     C                     G                     C      G           Am
And live our lives on the brink of death, WE'RE PIRATES! And we are free

Then:

e|--------------------------------------------------------------------|
B|----------------------------------------3-5-3---------0-1-0--0------|
G|-0-2--4-5-4-2-0----0-2--4-5-4-2-0--0-5-------5-4-0---------2--2-0-2-|
D|----------------2----------------------------------2----------------|
A|--------------------------------------------------------------------|
E|--------------------------------------------------------------------|

Until the end of song..

There is a solo, I didn't tab it.

Enjoy! Eldad

Great band, find them on facebook & myspace:
https://myspace.com/ordenogan and https://www.facebook.com/ORDENOGAN
Tap to rate this tab
# A B C D E F G H I J K L M N O P Q R S T U V W X Y Z