Song name
# A B C D E F G H I J K L M N O P Q R S T U V W X Y Z

Orden Ogan - Requiem tab

THIS WHOLE TAB IS CAPO ON 1!!
The tuning is composed to the capo, which means, the actual frets you use are 1\2 tone 
up, (9 is 10, 7 is 8 and so on)

Intro + Verses:

e|-----7-------7-------7-------7--------7-------7-------7-------7----|
B|--7-7-7-7-7-7-7-7-7-7-7-7-7-7-7-7--7-7-7-7-7-7-7-7-7-7-7-7-7-7-7-7-|
G|---7---7---7---7---7---7---7---7----7---7---7---7---7---7---7---7--|
D|-9-------9-------7-------7--------5-------5-------4-------4--------|
A|-------------------------------------------------------------------|
E|-------------------------------------------------------------------|

Interlude:

e|-----7---------4-------5---------0-5------|
B|--7-7-7-7-----4-4-4---3-3-2-3---3---3-2-3-|
G|---7---7-----------------------2----------| X3
D|-9-----------4---4---5--------0----4------|
A|------------4-------5---------------------|
E|-----------2-------3----------------------|

Chorus:

I am not a 100% sure about the chorus chords so if anyone is able to tab it more 
accuratly I'll be more than happy to put that in here and make the changes.
You can barely hear what they are playing in the original recording during the chorus, 
so I tabbed just the chords.

2nd time: (chords like G\f# means G with bass finger on F#

         C      G             Am             Em
Like the rain I fall from the heights to the ground
         C      G         Am             Em
Like the sun I go down unnoticed without sound
         C       G              C            Em
Every new day is worse than the night was before
         C      G                Am            Em
I will always remember What this requiem stands for

2nd time and until the end:

         D      A             C               G
Like the rain I fall from the heights to the ground
         D         A     C               G
Like the sun I go down unnoticed without sound
        D         A             D           G G\F#
Every new day is worse than the night was before
         D      A                G             Em
I will always remember What this requiem stands for


Stay true, stay metal!
Eldad
Tap to rate this tab
# A B C D E F G H I J K L M N O P Q R S T U V W X Y Z