Song name
# A B C D E F G H I J K L M N O P Q R S T U V W X Y Z

Osker - Patience tab

Band:  Osker
Song:  Patience
Album:  Idle Will Kill
Tuning:  Standard



Intro:
(  )=let ring
|--------------------------------|
|--------------------------------|
|--(10)----(10)-----999--777-----|
|--(x)-----(x)------xxx--xxx-----|
|--(8)-----(7)------777--555-----|
|--------------------------------|


Verse 1:
|--------------------------------|
|--------------------------------|
|--10--------9----7--------------|
|---x----10----x----x------------|
|---8-----x----7----5------------|
|---------8----------------------|

Verse 2:
|--------------------------------|
|--------------------------------|
|--9----10----7------------------|
|--x-----x----x------------------|
|--7-----8----5------------------|
|--------------------------------|


Verse 3:
|--------------------------------|
|--------------------------------|
|--10----7----9----7-------------|
|---x----x----x----x-------------|
|---8----5----7----5-------------|
|--------------------------------|
Tap to rate this tab
 
# A B C D E F G H I J K L M N O P Q R S T U V W X Y Z