Song name
# A B C D E F G H I J K L M N O P Q R S T U V W X Y Z

Osvajaci - Maska Sam tab

   uvod:klavijatura uradjena za gitaru
      Dm
  E|---1------3----------|
  H|---3------5------3---|
  G|---2------4------2---|
  D|---0------0------0---|
  A|---------------------|
  E|---------------------|4x

  uvodni riff:
  E|-------------------------------------|
  H|-------------------------------------|
  G|-------------------------------------|
  D|---12-0-0-3-0-0-7-0-5-0-8-0-7-0-10---|ovaj deo ide 
  A|-------------------------------------|4x sa pozadinom koju 
  E|-------------------------------------|svira druga gitara,a to je D5
 
  pa onda ide isto to samo 3x i zavrsava se sa  B5 A5 G5 A5 C5    
      \      /
       \    /	
        \  /
     sve ovo ide 2x(samo sto se na kraju dodaje jos D5)   

  strofu 1 svira bass: 
  G|----------------------------------------|
  D|----------------------------------------|
  A|---5-5-5-5-5-5-5-5-5-5-5-5-5-5-5-5-5-5--|
  E|----------------------------------------|i tako dalje
       Zadnji je cas pre potopa...

  G|---------------------------------------------------------|
  D|---------------------------------------------------------|
  A|---1-1-1-1-1-1-1-1-1-1-1-1-1-1-8-8-8-8-8-8-3-3-3-3-3-3---|
  E|---------------------------------------------------------|
         Zagrizi jace kraj nek bude price

  strofa 2:
  E|-----------------------------------------|
  H|-----------------------------------------|
  G|-----------------------------------------|
  D|-----------------------------------------|
  A|---5-5-5-5-5-5-5-5-5-5-5-5-5-5-5-5-5-5---|
  E|-----------------------------------------|
       Skini mi laz sa ociju...


      B5    F5    C5
  E|-------------------|
  H|-------------------|
  G|-------------------|
  D|---3-----------5---|
  A|---1-----3-----3---|
  E|---------1---------|
       A ako nisi uzalud te krijem

  prelaz:
      B5  		       D5   		D5       	
  E|-----------------------------------------------------------------|
  H|-----------------------------------------------------------------|
  G|---3-----------------------7-7--------------7-7------------------|
  D|---3-----------------------7-7-----7-----7--7-7--7-----7-----7---|
  A|---1-1-1-1-1-1-1-1-1-1-1-1-5-5-5-5-5-5-5-5--5-5--5-5-5-5-5-5-5---|
  E|-----------------------------------------------------------------|
        Necu da molim znas ti dobro to...

      B5		      C5 
  E|-------------------------------|
  H|-------------------------------|
  G|---3---------------------------|
  D|---3-----------------------5---|
  A|---1-1-1-1-1-1-1-1-1-1-1-1-3---|
  E|-------------------------------|
      I posle tebe bicu ponovo


  Refren:
      D5
  E|-------------------------------------|
  H|-------------------------------------|
  G|-------------------------------------|
  D|---12-0-0-3-0-0-7-0-5-0-8-0-7-0-10---|
  A|-------------------------------------| 
  E|-------------------------------------|2x
          Sam ja znam 
      B5    F5    C5
  E|-------------------|
  H|-------------------|
  G|-------------------|
  D|---3-----------5---| 
  A|---1-----3-----3---|
  E|---------1---------|
      ako sad odes ostacu zuvek
      D5
  E|-------------------------------------|
  H|-------------------------------------|
  G|-------------------------------------|
  D|---12-0-0-3-0-0-7-0-5-0-8-0-7-0-10---|
  A|-------------------------------------| 
  E|-------------------------------------|2x
    Sam i znam  
      B5    F5    C5
  E|-------------------|
  H|-------------------|
  G|-------------------|
  D|---3-----------5---| 
  A|---1-----3-----3---|
  E|---------1---------|
   krecem ka dnu gde mnogo puta bio sam  
  
  ponoviti:
  -strofa2
  -prelaz
  -refren     

  pozdina za solo 1:
      E5
  E|-----------------------------------|
  H|-----------------------------------|
  G|-----------------------------------|
  D|---9-------------------------------|
  A|---7-7-7-7-7-7-7-7-7-7-7-7-7-7-7---|
  E|-----------------------------------|

  pozadina za solo 2:
     Fis5
  E|-----------------------------------|
  H|-----------------------------------|
  G|-----------------------------------|
  D|-----------------------------------|
  A|---4-------------------------------|
  E|---2-2-2-2-2-2-2-2-2-2-2-2-2-2-2---|
  
  pozadina za solo 3:
      E5
  E|-----------------------------------|
  H|-----------------------------------|
  G|-----------------------------------|
  D|---9-------------------------------|
  A|---7-7-7-7-7-7-7-7-7-7-7-7-7-7-7---|
  E|-----------------------------------|

  solo 1:
  E|-------------------------------------------------------|
  H|-------------------------------------------------------|
  G|--------------------------------------12~---14~--------|
  D|---14-14--12--12p14--12-11------------------------14\--|
  A|---------------------------12-14--/14----14---/14------|
  E|-------------------------------------------------------|
                                              
  E|------------------------------------------|
  H|------------------------------------------|
  G|-------------12-14-12---12-14-12----16~---|
  D|-------12-14----------14--------14--------|
  A|-12-14------------------------------------|
  E|------------------------------------------|


  solo 2:
  E|---------------------------------------------------------|
  H|---------------------------------------------------------|
  G|---------------------------------------------------------|
  D|---16-16~--12p14---------------12------------14~---------|
  A|-----------------14~-----12-14----14-12------------------|
  E|----------------------14----------------14-12------12-14-|

  E|------------------------------------------------------|
  H|------------------------------------------------------|
  G|------------------------------------------------16~---|
  D|------12-14-12-------------12--16---16-16r14----------|
  A|-12-14--------14--12-14-16-------------------17-------|
  E|------------------------------------------------------|
 

  solo 3:
  E|---15r12--14r12--15r12--14r12---15r12-17r12---|
  H|--------12-----12-----12-----12---------------|
  G|----------------------------------------------|
  D|----------------------------------------------|
  A|----------------------------------------------|
  E|----------------------------------------------|4x

  ponoviti:
  -uvodni riff
  -refren(2x)

   kraj

   Solo je mnogo lakse odsvirati nego napisati
   tako da vam toplo preporucujem da ga sami skinete,
   a da vam ova moja polu improvizacija samo malo pomogne.
Tap to rate this tab
# A B C D E F G H I J K L M N O P Q R S T U V W X Y Z