Song name
# A B C D E F G H I J K L M N O P Q R S T U V W X Y Z

Otep - Confrontation tab

Otep-- Confrontation
Drop C Low to High: C-G-C-F-A-D
 
Hello Everyone,
This is my very first tab that i just made.
I watched the video on youtube and made this out of it.
I hope you enjoy and i approve of constructive criticism.
Email: killersquirlzman@yahoo.com






Intro
|----------------|
|----------------|
|----------------|
|----6-5------6-5|
|----5-3------5-3|
|2-2-----2-2-----|
		     >X3
|----------------|
|----------------|
|----------------|
|----6-5---------|
|----5-3---------|
|2-2-----2-2-232-|


Verse
|----------------|
|----------------|
|----------------|
|----------------|
|----------------|
|----------------|
|2-2---2-2-2---2-|
                     >X3
|----------------|
|----------------|
|----------------|
|----------------|
|----------------|
|2-2-2-2-1-3-4-1-|

Play on 4th time
|----------------|
|----------------|
|----------------|
|----------------|
|--------5-------|
|4-4-3-3---3-4-5-|

|----------------|
|----------------|
|----------------|
|----------------|
|----------------|
|3-3---3-3-3---3-|

Repeat the Verse as many times as you need to

Chorus
|----------------|
|----------------|
|----------------|
|----6-5------6-5|
|----5-3------5-3|
|2-2-----2-2-----|
		     >X3
|----------------|
|----------------|
|----------------|
|----6-5---------|
|----5-3---------|
|2-2-----2-2-232-|

On 4th time
|----------------|
|----------------|
|----------------|
|----------------|
|----333344445555|
|2222111122223333|

|----------------|
|----------------|
|----------------|
|----------------|
|5-5-5-5-5-5-575-|
|3-3-3-3-3-3-353-|

Play verse again

Play Chorus again 2X

Breakdown

|----------------|
|----------------|
|----------------|
|----------------|
|----------------|
|0000222233335555|
                   >X8
|----------------|
|----------------|
|----------------|
|----------------|
|----------------|
|----------------|
|0000222233336666|

Play this for one measure

|----------------|
|----------------|
|----------------|
|----------------|
|----------------|
|5-5---5-5-5---5-|

|----------------|
|----------------|
|----------------|
|----------------|
|----------------|
|5-5---5-5-------|

Play chorus againX2

Istead of last fill play this

|------------------|
|------------------|
|------------------|
|--------5555------|
|222222223333555575|
|------------333353|

Outro
|-------------|
|-------------|
|-------------|
|-------------|  X3
|------4-5-7-8|
|3h4p0-2-3-5-6|


|-------------|
|-------------|
|-------------|
|------4-8-7-5|
|3h4p0-2-6-5-3|

Play outro 3X then play fill

|---------------|
|---------------|
|---------------|
|---------------|
|--------8-7-3--|
|2-2---2-6-5-3-2|
Tap to rate this tab
# A B C D E F G H I J K L M N O P Q R S T U V W X Y Z