Song name
# A B C D E F G H I J K L M N O P Q R S T U V W X Y Z

Otep - Blood Pigs tab

Intro:           x3                              x1
-----------------------------------|-----------------------------------|
-----------------------------------|-----------------------------------|
-----------------------------------|-----------------------------------|
---2-1-0-4-3-2-5-4-3-6-5-4-7-6-5---|---5-4-3-4-3-2-3-2-1-2-1-0-2-1-0---|
---2-1-0-4-3-2-5-4-3-6-5-4-7-6-5---|---5-4-3-4-3-2-3-2-1-2-1-0-2-1-0---|
---2-1-0-4-3-2-5-4-3-6-5-4-7-6-5---|---5-4-3-4-3-2-3-2-1-2-1-0-2-1-0---|

-----------------------|-------------|
-----------------------|-------------|
-----------------------|-------------|
---0-2-3-2---0-2-3-2---|---6-6-6-6---|
---0-2-3-2---0-2-3-2---|---6-6-6-6---|
---0-2-3-2---0-2-3-2---|---6-6-6-6---|

Verse:
-----------------------------------|-----------------------------------|
-----------------------------------|-----------------------------------|
-----------------------------------|-----------------------------------|
-----------------------------------|---0-2-3-0-3/5-2---0-2-3-6-6-6-6---|
-----------------------------------|---0-2-3-0-3/5-2---0-2-3-6-6-6-6---|
---0-2-3-0-4-3-0-5-4-0-6-5-7-6-5---|---0-2-3-0-3/5-2---0-2-3-6-6-6-6---|

-------------------------------------|
-------------------------------------|
-------------------------------------|
---0-2-3-0-3/5-2-2-0-2-3-0-3/5-2-2---|
---0-2-3-0-3/5-2-2-0-2-3-0-3/5-2-2---|
---0-2-3-0-3/5-2-2-0-2-3-0-3/5-2-2---|

Verse 2:
-------------------------------|----------------------------------|
-------------------------------|----------------------------------|
-------------------------------|----------------------------------|
-------------------------------|---2-2-2-3-3------------2-2-2-3---|
-------------------------------|---2-2-2-3-3------------2-2-2-3---|
---0-0-0-5-0-0-4-0-0-3-0-0-2---|---2-2-2-3-3-3*-3*-3*---2-2-2-3---|

“fed from the wound from…”
-------------------------------|
-------------------------------|
-------------------------------|
---2-2-2-3-3-3---2-2-2-5-3-3---|
---2-2-2-3-3-3---2-2-2-5-3-3---|
---2-2-2-3-3-3---2-2-2-5-3-3---|

“and still you feed them…”
-----------13-13-12-12-13---|
--------12------------------|
----------------------------|
---0------------------------|
---0------------------------|
---0------------------------|

-----------------|
-----------------|
---5-4-----5-4---|
-----------------|
-----------------|
-----------------|

---------------------------------------------------------------------|
---------------------------------------------------------------------|
---------------------------------------------------------------------|
---2-2-2-2-2-2-2-2-3-3-3-3-3-3-3-3-0-0-0-0-0-0-0-0-3-3-3-3-3-3-3-3---|
---2-2-2-2-2-2-2-2-3-3-3-3-3-3-3-3-0-0-0-0-0-0-0-0-3-3-3-3-3-3-3-3---|
---2-2-2-2-2-2-2-2-3-3-3-3-3-3-3-3-0-0-0-0-0-0-0-0-3-3-3-3-3-3-3-3---|
Tap to rate this tab
 
# A B C D E F G H I J K L M N O P Q R S T U V W X Y Z