Song name
# A B C D E F G H I J K L M N O P Q R S T U V W X Y Z

Outfield - Your Love tab

Tabbed by: Jake Kulick
Email:jkulic2@yahoo.com

Verses:
e|---------0-----------------0----------------0-------------0------------------------|
B|--2--------2-----2------------2------0---------0----0-------0----------------------|
G|----2--------2------2-----------2------1---------1----1-------1--------------------|
D|------2-----------------2----------------2--------------2--------------------------|
A|-----------------------------------------------------------------------------------|
E|-----------------------------------------------------------------------------------|
Chorus:
e|----------0------------2-----------0---------------0-------------|
B|----2------2-----3-------3----0------0----0-----------0----------|2X
G|------2------2-----2-------2----1------1-----1----------1--------|
D|--------2------------0------------2-------------2----------------|
A|-----------------------------------------------------------------|
E|-----------------------------------------------------------------|
Tap to rate this tab
# A B C D E F G H I J K L M N O P Q R S T U V W X Y Z