Song name
# A B C D E F G H I J K L M N O P Q R S T U V W X Y Z

Overflow - Cry On My Shoulder tab

Help us improve GuitareTab! Take a short survey!
Highlighted       Show chord diagrams
-----------------------------------------------------------------------------
			     Cry on My Shoulder - Overflow
-----------------------------------------------------------------------------
Tabbed by: Matteo es feo
Email: jackjohnsonrules11@yahoo.com

Tuning: Standard

There are 2 guitars on this one, I am not tabbing out the lead part. I play just this 
part, and it works fine. I know this band personally and this is 100% accurate. They too 
play this one part live.

Intro:

e|---0h2---0-----0h2----0h2----0----0h2----3p2---|
B|---3-----3------3------3-----3-----3------3----|
G|---2-----2------2------2-----2-----2------2----|   X2
D|---0-----0------0------0-----0-----0------0----|
A|---X-----X------X------X-----X-----X------X----|
E|---X-----X------X------X-----X-----X------X----|

The intro is basically just a D2 hammering on and off the middle finger in a D chord pattern.

The chords for the rest of the song are:

Verses:
D A G A
D A G A
D A G A
Em A G A

Chorus:
D G A
D G A
D G A

Well that's how to play a good song by a great band. These guys are really awesome, and 
hope you enjoy their music. God loves you, PEACE!!!


     *KEY*
| h  hammer-on
| p  pull-off


=============================================================================
Related for Cry On My Shoulder tab