Song name
# A B C D E F G H I J K L M N O P Q R S T U V W X Y Z

Overflow - Forever tab

This is the piano intro, verses and outro to the song, transcribed for Guitar. As far as
can tell, the piano in the chorus is mainly chords and not very noticable. You can very
not have piano in the chorus and the song still sound great. Hope you guys like it, this 
a great christian band.

Intro/verses

e[-------------------------------------------------]
B[-------------------------------------------------]
G[--6-----6-4----------------6-----6-4-------------]  (2x)
D[------7-------7-6------7-9-----7-------7-6-------]
A[----9-------7-----9----------9-------7-----9-----]
E[-------------------------------------------------]

e[-------------------------------------------------]
B[-------------------------------------------------]
G[--6-7-----7-6------------------------------------]  (2x)
D[--------7-------7---7h8--------------------------]
A[------9-------7---7------------------------------]
E[-------------------------------------------------]

This is the little guitar solo at the end of the chorus.

e[-------------------------------------------------]
B[-------------------------------------------------]
G[--11-9-11-9-11-9-11-9-11h13-9-13-9-13------------]
D[-------------------------------------------------]
A[-------------------------------------------------]
E[-------------------------------------------------]

Outro (8x) Song fades out on the 9th time.

e[------------------------------------------------------------------------]
B[------------------------------------------------------------------------]
G[-------8--------8--------9--------9-------8-------8-------6-------6-----]
D[-----9---9----9---9----9---9----9---9---9---9---9---9---8---8---8---8---]
A[--11-------11-------11-------11-----------------------9-------9---------]
E[--------------------------------------7-------7-------------------------]
Tap to rate this tab
 
# A B C D E F G H I J K L M N O P Q R S T U V W X Y Z