Song name
# A B C D E F G H I J K L M N O P Q R S T U V W X Y Z

Overkill - Wrecking Crew tab

#----------------------------------PLEASE NOTE---------------------------------#
#This file is the author's own work and represents their interpretation of the #
#song. You may only use this file for private study, scholarship, or research. #
#------------------------------------------------------------------------------#

WRECKING CREW
As recorded by Overkill
(From the 1987 Album TAKING OVER)

Transcribed by mjl927
	

Words and Music by Overkill
Arranged by Overkill

E5
x 7 9 x x x
	
F#5
x 9 11 x x x
	
G5
x 10 12 x x x
	
A5
x 12 14 x x x

B5
7 9 x x x x
	
D5
x 5 7 x x x
	
A5V
5 7 x x x x
	
C#5
x 4 6 x x x

E5II
x x 2 4 x x
	
B5II
x 2 4 x x x
	
F#5IV
x x 4 6 x x
	
C5
x 3 5 x x x

Gtr I (E A D G B E) - 'Untitled'
Gtr II (E A D G B E) - 'Rhythm'

 Intro with hihat cymbals
  Q=160
                  E5                            E5
 4/4
  Gtr I
  Q  Q  E E E E   E S S +E  E S S S S S S S S   E S S +E  E S S S S S S S S
|-x--x--x-x-x-x-|-----------------------------|------------------------------|
|---------------|-----------------------------|------------------------------|
|---------------|-----------------------------|------------------------------|
|---------------|-9-9-9-(9)-9---------5p0-----|-9-9-9-(9)--------------------|
|---------------|-7-7-7-(7)-7-5p0---------5p0-|-7-7-7-(7)-0-2p0-3p0-2p0------|
|---------------|-0-0-0-(0)-0-----5p0---------|-0-0-0-(0)---------------3p0--|


  E5
  E S S +E  E S S S S S S S S
|-----------------------------|
|-----------------------------|
|-----------------------------|
|-9-9-9-(9)-9---------5p0-----|
|-7-7-7-(7)-7-5p0---------5p0-|
|-0-0-0-(0)-0-----5p0---------|


  |----3----| |----3----| |----3----| |----3----|
  S S S S S S S S S S S S S S S S S S S S S S S S
|--------------------------------------------------|
|--------------------------------------------------|
|-3p2p0-------3p2p0-------3p2p0-------3p2p0--------|
|-------3p2p0-------3p2p0-------3p2p0-------3p2p0--|
|--------------------------------------------------|
|--------------------------------------------------|


            E5            E5              E5        E5    E5
    PM----|   PM--------|   PM----------|   PM----|   PM|
    S S S S E S S S S S S E S S   S S S S E S S S S E S S E  8x
||------------------------------|----------------------------||
||o-----------------------------|---------------------------o||
||------------------------------|----------------------------||
||----------9-------------9-----|---------9---------9-----9--||
||o---------7-------------7-----|---------7---------7-----7-o||
||--0-0-0-0---0-0-0-0-0-0---0-0-|-0-0-0-0---0-0-0-0---0-0----||


   1st, 2nd, 3rd verses
    $
    D5         C5   B5 C5    D5
    W          H    E. S +E  E
||-----------|-----------------|
||o----------|-----------------|
||--7--------|-5----4--5-(5)-7-|
||--7--------|-5----4--5-(5)-7-|
||o-5--------|-3----2--3-(3)-5-|
||-----------|-----------------|


          E5            E5              E5        E5    E5
  PM----|   PM--------|   PM----------|   PM----|   PM|
  S S S S E S S S S S S E S S   S S S S E S S S S E S S E
|-----------------------------|---------------------------|
|-----------------------------|---------------------------|
|-----------------------------|---------------------------|
|---------9-------------9-----|---------9---------9-----9-|
|---------7-------------7-----|---------7---------7-----7-|
|-0-0-0-0---0-0-0-0-0-0---0-0-|-0-0-0-0---0-0-0-0---0-0---|


  D5         C5   B5 C5    D5
  W          H    E. S +E  E
|----------|-----------------|
|----------|-----------------|
|-7--------|-5----4--5-(5)-7-|
|-7--------|-5----4--5-(5)-7-|
|-5--------|-3----2--3-(3)-5-|
|----------|-----------------|


          E5            E5              E5        E5    E5
  PM----|   PM--------|   PM----------|   PM----|   PM|
  S S S S E S S S S S S E S S   S S S S E S S S S E S S E
|-----------------------------|----------------------------|
|-----------------------------|----------------------------|
|-----------------------------|----------------------------|
|---------9-------------9-----|---------9---------9-----9--|
|---------7-------------7-----|---------7---------7-----7--|
|-0-0-0-0---0-0-0-0-0-0---0-0-|-0-0-0-0---0-0-0-0---0-0----|


  D5         C5   B5 C5    D5
  W          H    E. S +E  E
|----------|-----------------|
|----------|-----------------|
|-7--------|-5----4--5-(5)-7-|
|-7--------|-5----4--5-(5)-7-|
|-5--------|-3----2--3-(3)-5-|
|----------|-----------------|


          E5            E5              E5        E5    E5
  PM----|   PM--------|   PM----------|   PM----|   PM|
  S S S S E S S S S S S E S S   S S S S E S S S S E S S E
|-----------------------------|----------------------------|
|-----------------------------|----------------------------|
|-----------------------------|----------------------------|
|---------9-------------9-----|---------9---------9-----9--|
|---------7-------------7-----|---------7---------7-----7--|
|-0-0-0-0---0-0-0-0-0-0---0-0-|-0-0-0-0---0-0-0-0---0-0----|


  D5         C5   B5IC5    D5
  W          H    E. S +E  E
|----------|-----------------|
|----------|-----------------|
|-7--------|-5----4--5-(5)-7-|
|-7--------|-5----4--5-(5)-7-|
|-5--------|-3----2--3-(3)-5-|
|----------|-----------------|


          E5            E5              E5        E5    E5
  PM----|   PM--------|   PM----------|   PM----|   PM|
  S S S S E S S S S S S E S S   S S S S E S S S S E S S E
|-----------------------------|----------------------------|
|-----------------------------|----------------------------|
|-----------------------------|----------------------------|
|---------9-------------9-----|---------9---------9-----9--|
|---------7-------------7-----|---------7---------7-----7--|
|-0-0-0-0---0-0-0-0-0-0---0-0-|-0-0-0-0---0-0-0-0---0-0----|


 Chorus
  F#5                    G5                        F#5                G5
   H     E.  S   +E  E    H      E.   S   +E   E    H     E.  S   +E   E
|----------------------|-------------------------|-----------------------|
|----------------------|-------------------------|-----------------------|
|-11----11-------------|-12-----12---------------|-11----11-----------12-|
|-11--------11--(11)---|-12----------12--(12)----|-11--------11--(11)-12-|
|--9----(9)-(9)--(9)-9-|-10----(10)-(10)-(10)-10-|--9----(9)-(9)--(9)-10-|
|----------------------|-------------------------|-----------------------|


  A5           B5II        D5            A5V         E5 D5E5
    W          E S S +E  E E S S +E  E   E S S +E  E Q  E E
|------------|-------------------------|--------------------|
|------------|-------------------------|--------------------|
|-/14--------|-------------------------|--------------------|
|-/14--------|-4---4-(4)-4-7---7-(7)-7-|-------------9--7-9-|
|-/12--------|-2---2-(2)-2-5---5-(5)-5-|-7---7-(7)-7-7--5-7-|
|------------|-------------------------|-5---5-(5)-5--------|


  B5II        D5
  E S S +E  E E S S +E  E
|-------------------------|
|-------------------------|
|-------------------------|
|-4---4-(4)-4-7---7-(7)-7-|
|-2---2-(2)-2-5---5-(5)-5-|
|-------------------------|


  A5V                           B5II        D5
              PM------------|
  E S S +E  E S S S S S S S S   E S S +E  E E S S +E  E
|-----------------------------|-------------------------|
|-----------------------------|-------------------------|
|-----------------------------|-------------------------|
|-----------------------------|-4---4-(4)-4-7---7-(7)-7-|
|-7---7-(7)-7-----------------|-2---2-(2)-2-5---5-(5)-5-|
|-5---5-(5)-5-7-7-7-7-7-7-7-7-|-------------------------|


                                                 1.
                                        To Coda
  A5V         E5 D5E5  B5II        D5             A5V         B5
                                                 9/8
                                                                          PM|
  E S S +E  E Q  E E   E S S +E  E E S S +E  E    E S S +E  E E S S +E  E S S
|--------------------|--------------------------|-----------------------------|
|--------------------|--------------------------|-----------------------------|
|--------------------|--------------------------|-----------------------------|
|-------------9--7-9-|-4---4-(4)-4-7---7-(7)-7--|-----------------------------|
|-7---7-(7)-7-7--5-7-|-2---2-(2)-2-5---5-(5)-5--|-7---7-(7)-7-9---9-(9)-9-----|
|-5---5-(5)-5--------|--------------------------|-5---5-(5)-5-7---7-(7)-7-0-0-|


          E5            E5              E5        E5    E5
 4/4
  PM----|   PM--------|   PM----------|   PM----|   PM|
  S S S S E S S S S S S E S S   S S S S E S S S S E S S E
|-----------------------------|---------------------------|
|-----------------------------|---------------------------|
|-----------------------------|---------------------------|
|---------9-------------9-----|---------9---------9-----9-|
|---------7-------------7-----|---------7---------7-----7-|
|-0-0-0-0---0-0-0-0-0-0---0-0-|-0-0-0-0---0-0-0-0---0-0---|


          E5            E5
  PM----|   PM--------|   PM|
  S S S S E S S S S S S E S S
|-----------------------------|
|-----------------------------|
|-----------------------------|
|---------9-------------9-----|
|---------7-------------7-----|
|-0-0-0-0---0-0-0-0-0-0---0-0-|


  |----3----| |----3----| |----3----| |----3----|
  S S S S S S S S S S S S S S S S S S S S S S S S
|-3p2p0-------3p2p0-------3p2p0-------------------|
|-------3p2p0-------3p2p0-------3p2p0-------------|
|-------------------------------------3p2p0-------|
|-------------------------------------------3p2p0-|
|-------------------------------------------------|
|-------------------------------------------------|


          E5            E5              E5        E5    E5
  PM----|   PM--------|   PM----------|   PM----|   PM|
  S S S S E S S S S S S E S S   S S S S E S S S S E S S E
|-----------------------------|----------------------------|
|-----------------------------|----------------------------|
|-----------------------------|----------------------------|
|---------9-------------9-----|---------9---------9-----9--|
|---------7-------------7-----|---------7---------7-----7--|
|-0-0-0-0---0-0-0-0-0-0---0-0-|-0-0-0-0---0-0-0-0---0-0----|


          E5            E5              E5        E5    E5
  PM----|   PM--------|   PM----------|   PM----|   PM|
  S S S S E S S S S S S E S S   S S S S E S S S S E S S E
|-----------------------------|-----------------------------||
|-----------------------------|----------------------------o||
|-----------------------------|-----------------------------||
|---------9-------------9-----|---------9---------9-----9---||
|---------7-------------7-----|---------7---------7-----7--o||
|-0-0-0-0---0-0-0-0-0-0---0-0-|-0-0-0-0---0-0-0-0---0-0-----||


  2.
  D5                              C#5         E5
  E S S +E  E S S S S S S S S     E S S +E  E E S S +E  E
|-----------------------------||--------------------------|
|-----------------------------||o-------------------------|
|-----------------------------||--------------------------|
|-7---7-(7)-7-----------------||--6---6-(6)-6-9---9-(9)-9-|
|-5---5-(5)-5-4-4-4-4-3-3-3-3-||o-4---4-(4)-4-7---7-(7)-7-|
|-----------------------------||--------------------------|


  B5II        F#5 E5F#5  C#5         E5
  E S S +E  E  Q  E  E   E S S +E  E E S S +E  E
|----------------------|-------------------------|
|----------------------|-------------------------|
|----------------------|-------------------------|
|-4---4-(4)-4-11--9-11-|-6---6-(6)-6-9---9-(9)-9-|
|-2---2-(2)-2--9--7--9-|-4---4-(4)-4-7---7-(7)-7-|
|----------------------|-------------------------|


  1.                            2.
  B5II                          B5II            E5
                               2/4             4/4
  E S S +E  E S S S S S S E     E S S +E  E     E S S +E  E S S S S S S S S
|----------------------------||-------------||------------------------------|
|---------------------------o||-------------||o-----------------------------|
|----------------------------||-------------||------------------------------|
|-4---4-(4)-4----------------||-4---4-(4)-4-||--9-9-9-(9)-9---------5p0-----|
|-2---2-(2)-2-4-4-4-4-2-2---o||-2---2-(2)-2-||o-7-7-7-(7)-7-5p0---------5p0-|
|-------------------------4--||-------------||--0-0-0-(0)-0-----5p0---------|


  E5                            E5
  E S S +E  E S S S S S S S S   E S S +E  E S S S S S S S S
|-----------------------------|-----------------------------|
|-----------------------------|-----------------------------|
|-----------------------------|-----------------------------|
|-9-9-9-(9)-------------------|-9-9-9-(9)-9---------5p0-----|
|-7-7-7-(7)-0-2p0-3p0-2p0-----|-7-7-7-(7)-7-5p0---------5p0-|
|-0-0-0-(0)---------------3p0-|-0-0-0-(0)-0-----5p0---------|


  1.              2.
  TP TP TP TP
                  |----3----| |----3----| |----3----| |----3----|
  Q  Q  Q  Q      S S S S S S S S S S S S S S S S S S S S S S S S
|--------------||--------------------------------------------------|
|-xS=xS=xS=x--o||--------------------------------------------------|
|-xS=xS=xS=x---||-3p2p0-------3p2p0-------3p2p0-------3p2p0--------|
|--------------||-------3p2p0-------3p2p0-------3p2p0-------3p2p0--|
|-------------o||--------------------------------------------------|
|--------------||--------------------------------------------------|


 Solo
  E5
  Gtr II
  E     S   S   +E     E     S   S   S   S   S   S   S   S
  |         |    |     |     |   |   |   |   |   |   |   |
  /         /    /     /     /   /   /   /   /   /   /   /

  Gtr I
  |-----3-----|  |----3----| |------3------| |------3------|
  S S S S S   S  S S S S S S S S   S S S   S S S   S S S   S
|------------------------------------------------------------|
|------------------------------------------------------------|
|-3p2p0----------3p2p0-------3p2p==0---------3p2p==0---------|
|-------3p2p==0--------3p2p0---------3p2p==0---------3p2p==0-|
|------------------------------------------------------------|
|------------------------------------------------------------|


  D5
  E     S   S   +E     E     S   S   S   S   S   S   S   S
  |         |    |     |     |   |   |   |   |   |   |   |
  /         /    /     /     /   /   /   /   /   /   /   /

  |-----3-----|  |----3----| |------3------| |------3------|
  S S S S S   S  S S S S S S S S   S S S   S S S   S S S   S
|------------------------------------------------------------|
|------------------------------------------------------------|
|-4p2p0----------4p2p0-------4p2p==0---------4p2p==0---------|
|-------4p2p==0--------4p2p0---------4p2p==0---------4p2p==0-|
|------------------------------------------------------------|
|------------------------------------------------------------|


  C5
  Gtr II
  E     S   S   +E     E     S   S   S   S   S   S   S   S
  |         |    |     |     |   |   |   |   |   |   |   |
  /         /    /     /     /   /   /   /   /   /   /   /

  Gtr I
  |-----3-----|  |----3----| |------3------| |------3------|
  S S S S S   S  S S S S S S S S   S S S   S S S   S S S   S
|------------------------------------------------------------|
|------------------------------------------------------------|
|-5p2p0----------5p2p0-------5p2p==0---------5p2p==0---------|
|-------5p2p==0--------5p2p0---------5p2p==0---------5p2p==0-|
|------------------------------------------------------------|
|------------------------------------------------------------|


  D5
  E     S   S   +E     E     S   S   S   S   S   S   S   S
  |         |    |     |     |   |   |   |   |   |   |   |
  /         /    /     /     /   /   /   /   /   /   /   /

                       T
  |-----3-----|  |----3----| |------3------| |------3------|
  S S S S S   S  S S S S S S S S   S S S   S S S   S S S   S
|----------------------------5p3p==0---------5p3p==0---------|
|----------------3p1p0-7-5p3---------5p3p==0---------5p3p==0-|
|-------4p2p==0----------------------------------------------|
|-4p2p0------------------------------------------------------|
|------------------------------------------------------------|
|------------------------------------------------------------|


  E5
  E     S   S   +E     E     S   S   S   S   S   S   S   S
  |         |    |     |     |   |   |   |   |   |   |   |
  /         /    /     /     /   /   /   /   /   /   /   /

  |-----3-----|  |----3----| |------3------| |------3------|
  S S S S S   S  S S S S S S S S   S S S   S S S   S S S   S
|-5p3p0----------5p3p0-------3p2p==0-5p3p==0-3p2p==0-5p3p==0-|
|-------5p3p==0--------5p3p0---------------------------------|
|------------------------------------------------------------|
|------------------------------------------------------------|
|------------------------------------------------------------|
|------------------------------------------------------------|


  D5
  E     S   S   +E     E     S   S   S   S   S   S   S   S
  |         |    |     |     |   |   |   |   |   |   |   |
  /         /    /     /     /   /   /   /   /   /   /   /

  |-----3-----|  |----3----| |------3------| |------3------|
  S S S S S   S  S S S S S S S S   S S S   S S S   S S S   S
|-3p2p0----------3p2p0-------3p2p==0-------------------------|
|-------3p2p==0--------3p2p0---------3p2p==0-----------------|
|--------------------------------------------4p2p==0---------|
|----------------------------------------------------4p2p==0-|
|------------------------------------------------------------|
|------------------------------------------------------------|


  C5                             D5    C#A5B5    C5D5
  E S S +E E   S S S S S S S S   Q     E E Q     E E
  |   |  | |   | | | | | | | |   |     | | |     | |
  /   /  / /   / / / / / / / /   /     / / /     / /

                                 |-3-|     |-3-|
  E S S  E S S S S S S S S S S   E E E E E E E E E E
|------------------------------|---------------------|
|------------------------------|-3-3-3-2---0-0-0-1-3-|
|------------------------------|---------2-----------|
|-2p==0h=2p==0-2p0h2p0h2p0h2p0-|---------------------|
|------------------------------|---------------------|
|------------------------------|---------------------|


  E5
   E       S    S +E     E   S  S S S S S  S  S
   |            |  |     |   |  | | | | |  |  |
   /            /  /     /   /  / / / / /  /  /

   |----3-----|
   S  S  E    E    Q        +Q.            S  S
|-------------------------------------------------|
|-------------------------------------------------|
|-------13---15---15b17====(15)-----------15-13---|
|-12s14-------------------------------------------|
|-------------------------------------------------|
|-------------------------------------------------|


  D5
   E     S S +E    E      S  S S S S S S S
   |       |  |    |      |  | | | | | | |
   /       /  /    /      /  / / / / / / /

                          ~~~~
              |---3---|
   S  S  E    E  E    E  +H
|------------------------------------------|
|-15p13------15p13-------------------------|
|-------14-----------14-(14)---------------|
|------------------------------------------|
|------------------------------------------|
|------------------------------------------|


  C5
   E     S S +E     E     S    S     S    S     S    S     S    S
   |       |  |     |     |    |     |    |     |    |     |    |
   /       /  /     /     /    /     /    /     /    /     /    /

                          |--------3---------|  |--------3---------|
   S  S  E    S  S  S  S  S  S    S  S  S    S  S  S    S  S  S    S
|----------------------------------------------12------12-14-12---14-|
|---------------------12-13-12---13-15-13---15----15-----------------|
|-------12---14p12-14------------------------------------------------|
|-12s14--------------------------------------------------------------|
|--------------------------------------------------------------------|
|--------------------------------------------------------------------|


  D5
   E        S    S    +E        E        S    S     S    S     S  S  S S
   |             |     |        |        |    |     |    |     |  |  | |
   /             /     /        /        /    /     /    /     /  /  / /

                                                                     ~~
   |-------3--------|  |------3-------|  |--------3---------|
   S  S  S  S  S    S  S  S  S  S  S  S  S  S    S  S  S    S  S  S  E
|-14-15-17-14-15---17-12-13-15-12-13-12----12----------------------------|
|---------------------------------------15------15-13-15---13-11-12------|
|-------------------------------------------------------------------14---|
|------------------------------------------------------------------------|
|------------------------------------------------------------------------|
|------------------------------------------------------------------------|


  E5
    E      S S +E     E     S  S  S  S  S  S  S  S
    |        |  |     |     |  |  |  |  |  |  |  |
    /        /  /     /     /  /  /  /  /  /  /  /

                   T           T           T
    S  S   E    S  S  S  S  S  S  S  S  S  S  S  S
|---------15h==17-20-17p15h17-19-17p15h17-20-17p15h|
|--------------------------------------------------|
|-(14)-x/------------------------------------------|
|--------------------------------------------------|
|--------------------------------------------------|
|--------------------------------------------------|


  D5
   E       S    S    +E       E        S    S    S    S     S    S    S    S
   |            |     |       |        |    |    |    |     |    |    |    |
   /            /     /       /        /    /    /    /     /    /    /    /

      T               T             T               T               T
   |-------5-------|  |------5------|  |--------5--------|  |--------5--------|
   S  S  S    S    S  S  S  S    S  S  S  S    S    S    S  S  S    S    S    S
|-17-19-17p==15h==17-20-17p15h==17-19-17p15h==17---20---17p15h17---19---17-------|
|----------------------------------------------------------------------------17--|
|--------------------------------------------------------------------------------|
|--------------------------------------------------------------------------------|
|--------------------------------------------------------------------------------|
|--------------------------------------------------------------------------------|


  C5                                       D5   C#A5B5 C5 D5
   E    S S +E  E     S    S S S S S S S    Q   E E Q   E E
   |      |  |  |     |    | | | | | | |    |   | | |   | |
   /      /  /  /     /    / / / / / / /    /   / / /   / /

                                                        ~~
   Q.           S  S  Q          Q         +Q   Q   Q   Q
|-20b22----------------------------------|------3S==7S=15---|
|--------------17-20-20b22-------3-------|-(3)--------------|
|----------------------------------------|------------------|
|----------------------------------------|------------------|
|----------------------------------------|------------------|
|----------------------------------------|------------------|


  E5
   E        S    S    +E        E        H
   |             |     |
   /             /     /

   |-------3--------|  |------3-------|  |------3-------|  |------3-------|
   S  S  S  S  S    S  S  S  S  S  S  S  S  S  S  S  S  S  S  S  S  S  S  S
|-17-12h15h17---------17-12h15h17-12h15h17-12h15h17-12h15h17-12h15h17-12h15--|
|-------------17p==12--------------------------------------------------------|
|----------------------------------------------------------------------------|
|----------------------------------------------------------------------------|
|----------------------------------------------------------------------------|
|----------------------------------------------------------------------------|


  D5
   E        S    S    +E        E        H
   |             |     |
   /             /     /

   |-------3--------|  |------3-------|  |------3-------|  |------3-------|
   S  S  S  S  S    S  S  S  S  S  S  S  S  S  S  S  S  S  S  S  S  S  S  S
|---------------------------------------------------------------------------|
|-17-12h15h17-12h==15h17-12h15h17-12h15h17-12h15h17-12h15h17-12h15h17-12h15-|
|---------------------------------------------------------------------------|
|---------------------------------------------------------------------------|
|---------------------------------------------------------------------------|
|---------------------------------------------------------------------------|


  C5
   E     S  S +E     E     H
   |        |  |
   /        /  /

                           |------3-------|  |------3-------|
   S  S  S  S  S  S  S  S  S  S  S  S  S  S  S  S  S  S  S  S
|--------------------------------------------------------------|
|--------------------------------------------------------------|
|-12h14h16-12h14h16-12h14--------------------------------------|
|-------------------------16-12h14h16-12h14h16-12h14h16-12h14--|
|--------------------------------------------------------------|
|--------------------------------------------------------------|


  D5    C#A5B5    C5D5  E5
  Q     E E Q     E E   E     S   S   +E E   H
  |     | | |     | |   |         |    |
  /     / / /     / /   /         /    /

  |-3-|     |-3-|       |-----3-----|        |----3----|
  E E E E E E E E E E   S S S S S   S  E S S S S S S S S S S E
|---------------------|--------------------------------2h3p2p0-|
|-3-3-3-2---0-0-0-1-3-|------------------------------2---------|
|---------2-----------|----------------------2p0h2h4-----------|
|---------------------|----------------2-4h5-------------------|
|---------------------|-------0h2h==3--------------------------|
|---------------------|-0h2h3----------------------------------|


  D5
  E     S   S   +E E   H
  |         |    |
  /         /    /

  |-----3-----|        |----3----|
  S S S S S   S  E S S S S S S S S S S E
|------------------------------2-4h5p4p2-|
|------------------------2h3h5-----------|
|------------------1h2h4-----------------|
|----------------4-----------------------|
|-------2h4h==5--------------------------|
|-2h4h5----------------------------------|


  C5
  E     S   S   +E     E     H
  |         |    |
  /         /    /

  |-----3-----|  |----3----| |----3-----|  |------3-------|
  S S S S S   S  S S S S S S S S S S S  S  S  S  S  S  S  S
|-----------------------------------------------------------|
|----------------------------5h7h9-7h9h10-10h11h13-11h12h14-|
|----------------------4h6h7--------------------------------|
|----------------4h6h7--------------------------------------|
|-------4h5h==7---------------------------------------------|
|-4h5h7-----------------------------------------------------|


  D5                C#5      A5V      B5                C5       D5
   Q                 E        E        Q                 E        E
   |                 |        |        |                 |        |
   /                 /        /        /                 /        /

   |------3-------|  |------3-------|  |------3-------|  |------3-------|
   S  S  S  S  S  S  S  S  S  S  S  S  S  S  S  S  S  S  S  S  S  S  S  S
|-11h12h14-11h12h14-12h14h16-12h14h16-13h15h17-13h15h17-14h16h18-17h19h21-|
|-------------------------------------------------------------------------|
|-------------------------------------------------------------------------|
|-------------------------------------------------------------------------|
|-------------------------------------------------------------------------|
|-------------------------------------------------------------------------|


               E5            E5                 E5        E5    E5
                                       >
   W                                   W
|-22b24============================|=(22)--------------------------|
|----------------------------------|-------------------------------|
|----------------------------------|-------------------------------|
|----------------------------------|-------------------------------|
|----------------------------------|-------------------------------|
|----------------------------------|-------------------------------|
|
| Gtrs I, II
|  PM--------|   PM--------|   PM-------------|   PM----|   PM|
|  S     S S S E S S S S S S E S S     S  S S S E S S S S E S S E
|----------------------------------|-------------------------------|
|----------------------------------|-------------------------------|
|----------------------------------|-------------------------------|
|--------------9-------------9-----|------------9---------9-----9--|
|--------------7-------------7-----|------------7---------7-----7--|
|--0-----0-0-0---0-0-0-0-0-0---0-0-|---0--0-0-0---0-0-0-0---0-0----|


            E5            E5              E5        E5    E5
    PM----|   PM--------|   PM----------|   PM----|   PM|
    S S S S E S S S S S S E S S   S S S S E S S S S E S S E
||------------------------------|----------------------------||
||o-----------------------------|---------------------------o||
||------------------------------|----------------------------||
||----------9-------------9-----|---------9---------9-----9--||
||o---------7-------------7-----|---------7---------7-----7-o||
||--0-0-0-0---0-0-0-0-0-0---0-0-|-0-0-0-0---0-0-0-0---0-0----||


                                              D.S. al Coda
          E5            E5              E5        E5    E5
  PM----|   PM--------|   PM----------|   PM----|   PM|
  S S S S E S S S S S S E S S   S S S S E S S S S E S S E
|-----------------------------|----------------------------|
|-----------------------------|----------------------------|
|-----------------------------|----------------------------|
|---------9-------------9-----|---------9---------9-----9--|
|---------7-------------7-----|---------7---------7-----7--|
|-0-0-0-0---0-0-0-0-0-0---0-0-|-0-0-0-0---0-0-0-0---0-0----|


 Coda
  &
  A5V         B5       B5II        D5            A5V         E5 D5E5
  E S S +E  E E E Q    E S S +E  E E S S +E  E   E S S +E  E Q  E E
|--------------------|-------------------------|--------------------|
|--------------------|-------------------------|--------------------|
|--------------------|-------------------------|--------------------|
|--------------------|-4---4-(4)-4-7---7-(7)-7-|-------------9--7-9-|
|-7---7-(7)-7-9------|-2---2-(2)-2-5---5-(5)-5-|-7---7-(7)-7-7--5-7-|
|-5---5-(5)-5-7------|-------------------------|-5---5-(5)-5--------|


  B5II        D5            A5V         B5
  E S S +E  E E S S +E  E   E S S +E  E E E Q
|-------------------------|--------------------|
|-------------------------|--------------------|
|-------------------------|--------------------|
|-4---4-(4)-4-7---7-(7)-7-|--------------------|
|-2---2-(2)-2-5---5-(5)-5-|-7---7-(7)-7-9------|
|-------------------------|-5---5-(5)-5-7------|


  B5II        D5            A5V         E5 D5E5
  E S S +E  E E S S +E  E   E S S +E  E Q  E E
|-------------------------|--------------------|
|-------------------------|--------------------|
|-------------------------|--------------------|
|-4---4-(4)-4-7---7-(7)-7-|-------------9--7-9-|
|-2---2-(2)-2-5---5-(5)-5-|-7---7-(7)-7-7--5-7-|
|-------------------------|-5---5-(5)-5--------|


  B5II        D5            A5V           E5
                           2/4           4/4
  E S S +E  E E S S +E  E   E S S +E  E   E S S +E  E S S S S S S S S
|-------------------------|-------------|------------------------------|
|-------------------------|-------------|------------------------------|
|-------------------------|-------------|------------------------------|
|-4---4-(4)-4-7---7-(7)-7-|-------------|-9-9-9-(9)-9---------5p0------|
|-2---2-(2)-2-5---5-(5)-5-|-7---7-(7)-7-|-7-7-7-(7)-7-5p0---------5p0--|
|-------------------------|-5---5-(5)-5-|-0-0-0-(0)-0-----5p0----------|


  E5                            E5
  E S S +E  E S S S S S S S S   E S S +E  E S S S S S S S S
|-----------------------------|-----------------------------|
|-----------------------------|-----------------------------|
|-----------------------------|-----------------------------|
|-9-9-9-(9)-------------------|-9-9-9-(9)-9---------5p0-----|
|-7-7-7-(7)-0-2p0-3p0-2p0-----|-7-7-7-(7)-7-5p0---------5p0-|
|-0-0-0-(0)---------------3p0-|-0-0-0-(0)-0-----5p0---------|


                                                              E5E5
  |-3-|             |-3-|               |-3-|
  S S S S S S S S S S S S S S S S S S   S S S S S S S S S S S E Q
|-------------------------------------|-----------------------------*|
|-------------------------------------|-----------------------------*|
|-------------------------------------|-----------------------------*|
|-8-7-5-------------7-6-5-------------|-8-7-5-----------------9-9\--*|
|-------8-7-6-5-----------8-7-6-5-----|-------8-7-6-5---------7-7\--*|
|---------------8-5---------------8-5-|---------------8-5-0-0-------*|



Duration Legend
---------------
W - whole; H - half; Q - quarter; E - 8th; S - 16th; T - 32nd; X - 64th; a - acciaccatura
+ - note tied to previous; . - note dotted; .. - note double dotted
Uncapitalized letters represent notes that are staccato (1/2 duration)
Irregular groupings are notated above the duration line
Duration letters will always appear directly above the note/fret number it represents the
duration for.  Duration letters with no fret number below them represent rests.  Multi-
bar rests are notated in the form Wxn, where n is the number of bars to rest for.  Low
melody durations appear below the staff

Tablature Legend
----------------
 h   - hammer-on
 p   - pull-off
 b   - bend
 pb  - pre-bend
 r   - bend release (if no number after the r, then release immediately)
 /\  - slide into or out of (from/to "nowhere")
 s   - legato slide
 S   - shift slide
 - natural harmonic
[n]  - artificial harmonic
n(n) - tapped harmonic
 ~   - vibrato
 tr  - trill
 T   - tap
 TP  - trem. picking
 PM  - palm muting
\n/  - tremolo bar dip; n = amount to dip
 \n  - tremolo bar down
 n/  - tremolo bar up
/n\  - tremolo bar inverted dip
 =   - hold bend; also acts as connecting device for hammers/pulls
 <> - volume swell (louder/softer)
 x   - on rhythm slash represents muted slash
 o   - on rhythm slash represents single note slash

Misc Legend
-----------
 |  - bar
||  - double bar
||o - repeat start
o|| - repeat end
*|  - double bar (ending)
 :  - bar (freetime)
 $  - Segno
 &  - Coda
Tempo markers -  = BPM(8/16=s8/s16), where s8 = swing 8ths, s16 = swing 16ths

Tap to rate this tab
 
# A B C D E F G H I J K L M N O P Q R S T U V W X Y Z