Song name
# A B C D E F G H I J K L M N O P Q R S T U V W X Y Z

Overkill - The Src tab

-----------------------------------------------------------------------------
			     THE SRC - Endless War
-----------------------------------------------------------------------------
Tabbed by: tsoun-net	
Email:

Tuning: E standard (EADGBe)


-- INTRO :
e|-------------------------------------------------------------------------|
B|-------------------------------------------------------------------------|
G|-------------------------------------------------------------------------|
D|------------------------------------------5------------------------------|
A|-2----------------------------------2--5-----5--5------------------------|
E|-0-------------------------------0--------------3------------------------|
pm                                    .  .     . .

e|-------------------------------------------------------------------------|
B|-------------------------------------------------------------------------|
G|-------------------------------------------------------------------------|
D|------------------------------------------5-----7------7-6-X-4-----------|
A|-2----------------------------------2--5-----5--5------5-4-X-2-----------|
E|-0-------------------------------0---------------------------------------|
pm                                    .  .     .  

e|-------------------------------------------------------------------------|
B|-------------------------------------------------------------------------|
G|-------------------------------------------------------------------------|
D|------------------------------------------5------------------------------|
A|-2----------------------------------2--5-----5--5----------5-------------|
E|-0-------------------------------0--------------3------3-3-3-------------|
pm                                    .  .     .         . .

e|-------------------------------------------------------------------------|
B|-------------------------------------------------------------------------|
G|-------------------------------------------------------------------------|
D|------------------------------------------5-----7------7-6---4-----------|
A|-2----------------------------------2--5-----5--5------5-4-X-2-----------|
E|-0-------------------------------0---------------------------------------|
pm                                    .  .     .  
 
Guitar 1 and 2 play the 4 previous bar 1 time.
Then guitar 1 play the 4 bars again, and guitar 2 plays this 2 times :

e|-------------------------------------------------------------------------|
B|-------------------------------------------------------------------------|
G|-9----------------------------------------------12-----------------------|
D|-X----------------------------------------------X------------------------|
A|-7----------------------------------------------10-----------------------|
E|-------------------------------------------------------------------------|

e|-------------------------------------------------------------------------|
B|-------------------------------------------------------------------------|
G|-16---------------------------------------------14-----14-13-11----------|
D|-X----------------------------------------------X------X--X--X-----------|
A|-14---------------------------------------------12-----12-11-9-----------|
E|-------------------------------------------------------------------------|



End of the intro, 
-- PRE-VERSE :

e|-------------------------------------------------------------------------|
B|-------------------------------------------------------------------------|
G|-------------------------------------------------------------------------|
D|--------------------------5----------------------------------------------|
A|-2---2---2----------2--5-----5--5----------------------------------------|
E|-0---0---0-----0-0-------------------------------------------------------|
pm               . .
x3

e|-------------------------------------------------------------------------|
B|-------------------------------------------------------------------------|
G|-------------------------------------------------------------------------|
D|-------------------------------------------------------------------------|
A|-2---2---2---2---2---2---2-----------------------------------------------|
E|-0---0---0---0---0---0---0-----------------------------------------------|



e|-----------------------------------------------------------------|
B|-----------------------------------------------------------------|
G|-----------------------------------------------------------------|
D|------------------5----------------------------------------------|
A|-2----------2--5-----5--5----------------------------------------|
E|-0---0-0-0-------------------------------------------------------|
pm     . . .
x3

e|-------------------------------------------------------------------------|
B|-------------------------------------------------------------------------|
G|-------------------------------------------------------------------------|
D|-------------------------------------------------------------------------|
A|-5---7---8---7-----------------------------------------------------------|
E|-3-0-5-0-6-0-5-0---------------------------------------------------------|
pm   .   .   .   .

play the 2 previous bar 2 times.

End of the preverse :
e|-------------------------------------------------------------------------|
B|-------------------------------------------------------------------------|
G|-------------------------------------------------------------------------|
D|-------------------------------------------------------------------------|
A|-2-----------------------------5-----------------------------5-----------|
E|-0-0-0-0-0-0-0-0-0-0-0-0-0-0-0-3-0-0-0-0-0-0-0-0-0-0-0-0-0-0-3-----------|
pm   . . . . . . . . . . . . . .   . . . . . . . . . . . . . . 

e|-------------------------------------------------------------------------|
B|-------------------------------------------------------------------------|
G|-------------------------------------------------------------------------|
D|-------------------------------------------------------------------------|
A|-----------------------------5-----7-----8-----7-------------------------|
E|-0-0-0-0-0-0-0-0-0-0-0-0-0-0-3-0-0-5-0-0-6-0-0-5-0-0---------------------|
pm . . . . . . . . . . . . . .   . .   . .   . .   . .

Play the 2 previous bars 2 times. On the second time, end with a E powerchord.


-- VERSE :
e|-----------------------------------------------------------------|
B|-----------------------------------------------------------------|
G|-----------------------------------------------------------------|
D|------------------5----------------------------------------------|
A|-2----------2--5-----5--5----------------------------------------|
E|-0---0-0-0-------------------------------------------------------|
pm     . . .
x3

e|-------------------------------------------------------------------------|
B|-------------------------------------------------------------------------|
G|-------------------------------------------------------------------------|
D|-------------------------------------------------------------------------|
A|-5---7---8---7-----------------------------------------------------------|
E|-3-0-5-0-6-0-5-0---------------------------------------------------------|
pm   .   .   .   .

e|-----------------------------------------------------------------|
B|-----------------------------------------------------------------|
G|-----------------------------------------------------------------|
D|------------------5----------------------------------------------|
A|-2----------2--5-----5--5----------------------------------------|
E|-0---0-0-0-------------------------------------------------------|
pm     . . .
x3

e|------------------------------------------------------------------------|
B|------------------------------------------------------------------------|
G|------------------------------------------------------------------------|
D|------------------------------------------------------------------------|
A|-5-----5-----5\4-5-----5-----5\4----------------------------------------|
E|-3-0-0-3-0-0-3\2-3-0-0-3-0-0-3\2----------------------------------------|
pm   . .   . .       . .   . .

Play verse 2 times.


-- CHORUS :
e|-------------------------------------------------------------------------|
B|-------------------------------------------------------------------------|
G|-------------------------------------------------------------------------|
D|-------------------------------7-6-5-------------------------------------|
A|-2---5-4-5-2---8-7-8-2---8-7-9-5-4-3-------------------------------------|
E|-0---3-2-3-0---6-5-6-0---6-5-7-------------------------------------------|
pm     . .       . .       . . 
x2

-- PRE-VERSE :
e|-------------------------------------------------------------------------|
B|-------------------------------------------------------------------------|
G|-------------------------------------------------------------------------|
D|--------------------------5----------------------------------------------|
A|-2---2---2----------2--5-----5--5----------------------------------------|
E|-0---0---0-----0-0-------------------------------------------------------|
pm               . .
x3

e|-------------------------------------------------------------------------|
B|-------------------------------------------------------------------------|
G|-------------------------------------------------------------------------|
D|-------------------------------------------------------------------------|
A|-2---2---2---2---2---2---2-----------------------------------------------|
E|-0---0---0---0---0---0---0-----------------------------------------------|


-- VERSE : play verse riff


--CHORUS :
Play chorus as the first one, then play :

e|-------------------------------------------------------------------------|
B|-------------------------------------------------------------------------|
G|-------------------------------------------------------------------------|
D|-------------------------------------------------------------------------|
A|-2------5-4-5-2------8-7-8-2------8-7-9----------------------------------|
E|-0--0-0-3-2-3-0--0-0-6-5-6-0--0-0-6-5-7----------------------------------|
pm    . . . .      . . . .      . . . .
x2

-- preSOLO :
e|-------------------------------------------------------------------------|
B|-------------------------------------------------------------------------|
G|-------------------------------------------------------------------------|
D|-7-6-5-------9-8-7-------11109-------------------------------------------|
A|-5-4-3-------7-6-5-------9-8-7-------------------------------------------|
E|-------5-4-3-------7-6-5-------9-8-7-------------------------------------|
pm       . . .       . . .       . . .

RYTHM for the solo :
e|-------------------------------------------------------------------------|
B|-------------------------------------------------------------------------|
G|-------------------------------------------------------------------------|
D|-9-----9-----9-----9-10-9-7-5-----5-----5-----5--------------------------|
A|-7-----7-----7-----7-8--7-5-3-3-3-3-3-3-3-3-3-3-3-3-4-----4-----4-----4--|
E|---0-0---0-0---0-0----------------------------------2-2-2-2-2-2-2-2-2-2--|
pm   . .   . .   . .            . .   . .   . .   . .   . .   . .   . . 

e|-------------------------------------------------------------------------|
B|-------------------------------------------------------------------------|
G|-------------------------------------------------------------------------|
D|-------------------------------------------------------------------------|
A|-----4-5-4-3-3-----3-----3-----3-----3-----------------------------------|
E|-2-2-2-3-2-1-1-1-1-1-1-1-1-1-1-1-1-1-1-1-1-------------------------------|
pm . .     . .   . .   . .   . .   . .   . .
x2


e|-------------------------------------------------------------------------|
B|-------------------------------------------------------------------------|
G|-------------------------------------------------------------------------|
D|-------------------------------------------------------------------------|
A|-------------------------------------------------6-----------------------|
E|-0---0-0-2-2-2-0---0-0-2-2-2-0---0-0-2-2-2-0-3-6---6---------------------|
pm .   . . . . . .   . . . . . .   . . . . . 

e|-------------------------------------------------------------------------|
B|-------------------------------------------------------------------------|
G|-------------------------------------------------------------------------|
D|-------------------------------------------------------------------------|
A|-------------------------------------------------6-----------------------|
E|-0---0-0-2-2-2-0---0-0-2-2-2-0---0-0-2-2-2-0-3-6---0-5-8-----------------|
pm .   . . . . . .   . . . . . .   . . . . . 
(alternate with the 2 previous riffs)
then this riff comes :

e|-----------------------------------|
B|-----------------------------------|
G|-----------------------------------|
D|-9---------9-11-9------------------|
A|-7-7-7-7-7-7-9--7-7-7-7-7----------|
E|-----------------------------------|
pm  . .  . .        . . . .
x4

e|-------------------------------------------------------------------------|
B|-------------------------------------------------------------------------|
G|-------------------------------------------------------------------------|
D|-------------------------------------------------------------------------|
A|-7---------7-8-7---------7---------7-8-7-5-7-----------------------------|
E|-5-5-5-5-5-5-6-5-5-5-5-5-5-5-5-5-5-5-6-5-3-5-----------------------------|
pm   . . . .       . . . .   . . . .
x2
those 2 bars 2 times

-- PRE-VERSE
-- CHORUS
-- VERSE
-- END OF THE PRE-VERSE

************************************

| /   slide up
| \   slide down
| h   hammer-on
| p   pull-off
| ~   vibrato
| +   harmonic
| x   Mute note
| b   Bend
| pb  Pre-bend
| br  Bend release
| pbr Pre-bend release
| brb Bend release bend

************************************
Tap to rate this tab
 
# A B C D E F G H I J K L M N O P Q R S T U V W X Y Z