Song name
# A B C D E F G H I J K L M N O P Q R S T U V W X Y Z

P O D - Southtown tab

Help us improve GuitareTab! Take a short survey!
t. See http://www.olga.net/faq/ for more information.                     #
#-----------------------------------------------------------------------------#

Date: Sun, 16 Apr 2000 20:09:46 -0400
From: "Kamberos" 
Subject: p/p_o_d/southtown.crd

P.O.D
Southtown
fundamental elemants of southtown
By : Bill Kamberos


This song is really easy to play, I learned it the first time i
heard it.


the intro is just this played very lightly backwards.

it played forward is the riff



1--------------------------------------------------------------
2--------------------------------------------------------------
3--------------------------------------------------------------
4-----444-4-4-444--6----333-3-3-333---5-----------------------
5-----444-4-4-444--6----333-3-3-333---5-----------------------
6-----222-2-2-222--4----111-1-1-111---3-----------------------

before chorus

4---4---
5-----4-
6-2-----


chorus
4---4--4---6666--4--4--6666--3--3--5555--3--3--5555------------
5---4--4---------4--4--------3--3--------3--3------------------
6---2--2---------2--2--------1--1--------1--1------------------

bridge

4------6-----6------------
5----6-----6-----6--------
6--4-----4-----4----------

then.....
4---3--4--5----3--4--5---------------
5---3--4--5----3--4--5---------------
6---1--2--3----1--2--3---------------

by Bill Kamberos
if you see mistakes mail them to _PureMassacre_@excite.com
Related for Southtown tab