Song name
# A B C D E F G H I J K L M N O P Q R S T U V W X Y Z

P O D - Southtown tab

Artist: POD
Song: Southtown
Album: The Fundamental Elements of Southtown

Drop D tunning (DAD)

Intro 
D-7-7-7-7--3-3-3-3-3-3-3-3-7-7-7-7-0-0-0-0-0-0-0-0-0-0
A-7-7-7-7--3-3-3-3-3-3-3-3-7-7-7-7-0-0-0-0-0-0-0-0-0-0
D-7-7-7-7--3-3-3-3-3-3-3-3-7-7-7-7-0-0-0-0-0-0-0-0-0-0

    Repeat that x4

Verse
D-7/3-333-3-3333-777-000-0-0000-777-333-3-3333-777000-0-0000
A-7/3-333-3-3333-777-000-0-0000-777-333-3-3333-777000-0-0000
D-7/3-333-3-3333-777-000-0-0000-777-333-3-3333-777000-0-0000

Play that a bunch of times. I don't know how many. 

Bridge

D-----3-2-------
A----5---------- Then the bass comes in after that
D---------------

Then

D-3-3------3-3------0-0------0-0-----
A-3-3-5555-3-3-5555-0-0-2222-0-0-2222
D-3-3------3-3------0-0------0-0-----

That repeats a bunch of times 

Then you play the breakdown, which is really easy

D-0-2-3-0-2-3
A-0-2-3-0-2-3
D-0-2-3-0-2-3

The song ends with the verse again.

This is a easier way to play the song than I have seen.

Have fun God Bless
Tap to rate this tab
 
# A B C D E F G H I J K L M N O P Q R S T U V W X Y Z