Song name
# A B C D E F G H I J K L M N O P Q R S T U V W X Y Z

P O D - Boom tab

tuning:DADGBE
ANy corrections/question email me lolita4eva@netzero.net
 
KEY____________
<>=harmonic 
PM...=palm mute till (...)ends    h=hammeron
*=rest                            p=pull-off
piano=soft
forte=loud
/=slide

Intro
E-------------------------------------------
B-------------------------------------------
G-------------------------------------------
D-------------------------------------------
A-------------------------------------------
D--222--000--222--000--555555---7777--000---   REPEAT 3X


RIFF A
E-----------------------------------------
B-----------------------------------------
G-----------------------------------------   
D-222--000-222--000-555555--7777--000-----
A-222--000-222--000-555555--7777--000-----
D-222--000-222--000-555555--7777--000-----  REPEAT 3X
PM.....................................


E-----------------------------------------
B-----------------------------------------
G-----------------------------------------   
D-222--000-222--000-555555--7777--000-----
A-222--000-222--000-555555--7777--000-----
D-222--000-222--000-555555--7777--000-----  
PM...................


RIFF B (SAME AS INTRO)
E---------------------------------------------------
B---------------------------------------------------
G---------------------------------------------------
D---------------------------------------------------
A---------------------------------------------------    REPEAT 2X 
D-222--000--222--000--555555--7777-000--------------

         RIFF C
E-------[-------------------------------------------]
B-------[-------------------------------------------]
G-------[-------------------------------------------]
D-7/----[-22--------22--------7777--0--7777--0------]
A-7/----[-22---7/5--22---7/5--7777--0--7777--0------]
D-7/----[-22--------22--------7777--0--7777--0------]
1x        REPEAT 4X



THEN YOU REPEAT FROM RIFF A AND KEEP GOING.


BREAK DOWN("WELL ITS ALRIGHT, ALRIGHT",ETC.)
CLEAN SOUND
E-------------------------------------------------------------
B-------------------------------------------------------------
G---------------------<5>-------------------------------------
D-----0-2--------0-2-------<5>---------0-2-----0-2---2--h3-p2-
A-------------------------------------------------------------
D-2---------2----------------------2--------2-----------------
PIANO(soft)

E----------------------------------------------------------
B----------------------------------------------------------
G----------------------------------------------------------
D-----0-2--------0-2----<5>--------0-2-------0-2-----------
A----------------------------------------------------------
D-2----------2-----------------2---------2-----------------

Distorted Sound
E-----------------
B-----------------
G-----------------
D-2--h3-p2--------
A-----------------
D-----------------
Forte(loud)

E--------------------------------------
B--------------------------------------
G--------------------------------------
D----0-2-------0-2----2-h3-p2----------repeat 4x
A--------------------------------------
D-2--------2---------------------------



E-------------------------------------
B-------------------------------------
G-------------------------------------
D-22---22--77777---0---77777---0------
A-22-*-22--77777---0---77777---0------repeat 2x
D-22---22--77777---0---77777---0------



E------------------------------------------
B------------------------------------------
G------------------------------------------
D-22--------22--------7777-0-7777-0--------
A-22--7/5---22--7/5---7777-0-7777-0--------repeat 2x
D-22--------22--------7777-0-7777-0--------

The end.

Tap to rate this tab
 
# A B C D E F G H I J K L M N O P Q R S T U V W X Y Z