Song name
# A B C D E F G H I J K L M N O P Q R S T U V W X Y Z

Paddock Park - Kiss Kiss Bang Bang tab

http://www.myspace.com/paddockpark
Drop D

(0:00-0:10 and 0:12-0:24)
e|-----------------------------|
B|-----------------------------|
G|-----------------------------|
D|----------7-7-7--------------|
A|-000-0000-8-8-8-0000-0000----|
D|-000-0000-------0000-0000----|
   xxx xxxx       xxxx xxxx

(0:24-0:48)
e|---------------------------------------------------|
B|---------------------------------------------------|
G|---------------------------------------------------|
D|-0000000---9999999---1010101010101010101010101010--|
A|-0000000---7777777---8-8-8-8-8-8-8-8-8-8-8-8-8-8---|
D|-0000000---7777777---8-8-8-8-8-8-8-8-8-8-8-8-8-8---|

(00:49-1:01)
e|--------------------------------------------|
B|--------------------------------------------|
G|--------------------------------------------|
D|-0--------7--------8------------------------|
A|-0--------7--------8------------------------|
D|-0000000--77777777-888888888888888----------|
    xxxxxx   xxxxxxx  xxxxxxxxxxxxxx

(1:02-1:24)
e|-----------------------------------------------------|
B|-----------------------------------------------------|
G|-----------------------------------------------------|
D|----0-----0----7-----7----8-----8-----8-----8--------|
A|----0-----0----7-----7----8-----8-----8-----8--------|
D|-00-0-000-0-77-7-777-7-88-8-888-8-888-8-888-8--------|
   xx   xxx   xx   xxx   xx   xxx   xxx   xxx

(1:25-1:50)
e|-------x-----------------|
B|-------x-----------------|
G|-------x-----------------|
D|-------x--7-7-7----------|
A|-0000--x--8-8-8----------|
D|-0000--x-----------------|
   xxxx

(1:51-2:16)
e|---------------------------------------------------|
B|---------------------------------------------------|
G|---------------------------------------------------|
D|-0000000---9999999---1010101010101010101010101010--|
A|-0000000---7777777---8-8-8-8-8-8-8-8-8-8-8-8-8-8---|
D|-0000000---7777777---8-8-8-8-8-8-8-8-8-8-8-8-8-8---|

(2:16-2:28)
e|-------x--------x-------x-------x-------x---------------------|
B|-------x--------x-------x-------x-------x---------------------|
G|-------x--------x-------x-------x-------x---------------------|
D|-7-7-7-x--7-7-7-x-7-7-7-x-7-7-7-x-7-7-7-x--7-7-7---8-5-6-1----|
A|-8-8-8-x--8-8-8-x-8-8-8-x-8-8-8-x-8-8-8-x--8-8-8---8-5-6-1----|
D|-------x--------x-------x-------x-------x----------8-5-6-1----|


(2:28-2:39 and 2:41-2:52)
e|-----------------------------|
B|-----------------------------|
G|-----------------------------|
D|----------7-7-7--------------|
A|-000-0000-8-8-8-0000-0000----|
D|-000-0000-------0000-0000----|
   xxx xxxx       xxxx xxxx

(2:52-2:53)
e|-----------|
B|-----------|
G|-----------|
D|-----------|
A|-000-000---|
D|-000-000---|
   xxx xxx
Tap to rate this tab
# A B C D E F G H I J K L M N O P Q R S T U V W X Y Z