Song name
# A B C D E F G H I J K L M N O P Q R S T U V W X Y Z

Paddy And The Rats - Pub N Roll tab

Artist: Paddy and the Rats
Album: Rats On Board
Song: Pub 'n Roll
Tab: mcspayne

Bagpipe main theme


     Q    H         E   E      Q.      E   Q     E   E   
E||------------------------|----------------------------|
B||----------------14--12--|----------12--14----12------|
G||------------------------|--14--------------------14--|
D||------------------------|----------------------------|
A||------------------------|----------------------------|
E||------------------------|----------------------------|


   Q.      E   H            Q.      E   Q     E   E   
--14------12------------|--14------12----------------|
--------------14--------|--------------14----12------|
------------------------|------------------------14--|
------------------------|----------------------------|
------------------------|----------------------------|
------------------------|----------------------------|


   Q.      E   Q     E   E      Q.      E   Q     E   E   
----------------------------|----------------------------|
--12------14--12----14--12--|----------12--14----12------|
----------------------------|--14--------------------14--|
----------------------------|----------------------------|
----------------------------|----------------------------|
----------------------------|----------------------------|


   Q.      E   H            Q.      E   Q     E   E      H         H          
--14------12------------|----------------------------|----------------------||
--------------14--------|----------12--14----12------|--12------------------||
------------------------|--14--------------------14--|------------14--------||
------------------------|----------------------------|----------------------||
------------------------|----------------------------|----------------------||
------------------------|----------------------------|----------------------||




Duration Legend
---------------
W - whole
H - half
Q - quarter
E - 8th
S - 16th
T - 32nd
X - 64th
. - note dotted
|-n-|  - n-tuplets
Tap to rate this tab
# A B C D E F G H I J K L M N O P Q R S T U V W X Y Z