Song name
# A B C D E F G H I J K L M N O P Q R S T U V W X Y Z

Panda - Solo A Terceros tab

Solo a Terceros----------PXNDX
POETICS

esta es la nueva cancion de panda y sta bn perrona
espero q les guste

(si algo sta mal diganme x coments, lo saque con puro oido)

1=guitarra1
2=guitarra2


intro
|------------------|       |---------------------------------------------|
|------------------|       |-----5---------------------------------------|
|-----5-----5------|       |--------------8~------10---------------------|
|---6-----6-----6--|       |---6----5-----8~------10-10-10-10-10-10-10-10|
|-7-----7-----7---0|       |-7--------7---6~-------8-10-10-10-10-10-10-10|
|------------------|x3     |--------------------------8--8--8--8--8--8--8|


verso (tal vez no...)
|------------------------|1      |-------------------------------|2
|------------------------|       |-------------------------------|
|------------------------|       |-8-8------6-6-----1010---------|
|-10-10-10-10-10-10-10-10|       |-8-8------6-6-----1010-----1010|
|-10-10-10-10-10-10-10-10|       |-6-6------4-4------8-8-----1010|
|--8--8--8--8--8--8--8--8|       |----------------------------8-8|x3


verso (es tu secundario...)
|-------------------------------|2      |----------------------------------|1
|-------------------------------|       |---6---6---6---6---9---9---9---9--|
|-------------------------------|       |-8---8---8---8---8---8---8---8---8|
|-8-8-8-8-8-8-8-8-8-8-8-88-88-88|       |----------------------------------|
|-8-8-8-8-8-8-8-8-8-8-8-88-88-88|       |----------------------------------|
|-6-6-6-6-6-6-6-6-6-6-6-66-66-66|x2     |----------------------------------|x4


coro -las 2 guitarras
|------------------------------------------------------------------------|
|------------------------------------------------------------------------|
|------------------------------------------------------------------------|
|-88-88-88-88-808-88-88-88-88-808-66-66-66-66-66-1010-1010-1010-1010-1010|
|-88-88-88-88-808-88-88-88-88-808-66-66-66-66-66-1010-1010-1010-1010-1010|
|-66-66-66-66-606-66-66-66-66-606-44-44-44-44-44--8-8--8-8--8-8--8-8--8-8|x2


|---------------|1      |------------------------|2
|-8------8-8---8|       |------------------------|
|---9--------9--|       |------------------------|
|-----10--------|       |-10-10-10-10-10-10-10-10|
|---------------|       |-10-10-10-10-10-10-10-10|
|---------------|x2     |--8--8--8--8--8--8--8--8|x2


verso (como se...)
|------------------------|1      |-------------------------------|2
|------------------------|       |-------------------------------|
|------------------------|       |-8-8------6-6-----1010---------|
|-10-10-10-10-10-10-10-10|       |-8-8------6-6-----1010-----1010|
|-10-10-10-10-10-10-10-10|       |-6-6------4-4------8-8-----1010|
|--8--8--8--8--8--8--8--8|       |----------------------------8-8|x3


verso (y aunque...)
|-------------------------------|2      |----------------------------------|1
|-------------------------------|       |---6---6---6---6---9---9---9---9--|
|-------------------------------|       |-8---8---8---8---8---8---8---8---8|
|-8-8-8-8-8-8-8-8-8-8-8-88-88-88|       |----------------------------------|
|-8-8-8-8-8-8-8-8-8-8-8-88-88-88|       |----------------------------------|
|-6-6-6-6-6-6-6-6-6-6-6-66-66-66|x2     |----------------------------------|x4


coro -las 2 guitarras
|------------------------------------------------------------------------|
|------------------------------------------------------------------------|
|------------------------------------------------------------------------|
|-88-88-88-88-808-88-88-88-88-808-66-66-66-66-66-1010-1010-1010-1010-1010|
|-88-88-88-88-808-88-88-88-88-808-66-66-66-66-66-1010-1010-1010-1010-1010|
|-66-66-66-66-606-66-66-66-66-606-44-44-44-44-44--8-8--8-8--8-8--8-8--8-8|x2

solo!!!!!!
|------------|--------|
|-8--9-11-9-8|-8787878|
|------------|--------|
|------------|--------|
|------------|--------|
|------------|--------|x6

(no me arrepiento...)
|-----------------------------------------------------------------------|
|-999999991111111111111111888888889999-11111111121212126666-888899994444|
|-----------------------------------------------------------------------|
|-----------------------------------------------------------------------|
|-----------------------------------------------------------------------|
|-----------------------------------------------------------------------|x2

coro -las 2 guitarras
|------------------------------------------------------------------------|
|------------------------------------------------------------------------|
|------------------------------------------------------------------------|
|-88-88-88-88-808-88-88-88-88-808-66-66-66-66-66-1010-1010-1010-1010-1010|
|-88-88-88-88-808-88-88-88-88-808-66-66-66-66-66-1010-1010-1010-1010-1010|
|-66-66-66-66-606-66-66-66-66-606-44-44-44-44-44--8-8--8-8--8-8--8-8--8-8|x2


outro
|---------|
|------7/9|
|---------|
|-88------|
|-88------|
|-66------|
Tap to rate this tab
# A B C D E F G H I J K L M N O P Q R S T U V W X Y Z