Song name
# A B C D E F G H I J K L M N O P Q R S T U V W X Y Z

Panda - Figura Decorativa Sobre Fondo Ornamental tab

PxNdX
Figura Decorativa Sobre Fondo Ornamental 
Para Ti Con Desprecio 
Transcrita por:Wicho Punk 

Afinacion Estandar 

Empieza la gtr. 1 haciendo esto y lo ara 
toda la kancion 
e|---------------------------------|
b|---------------------------------|
g|---4-1-4---4-1-4---4---4---4---4-|
d|-2-------2-----------4-------4---|
a|-----------------2-------2-------|
E|---------------------------------|

 Gtr. 2 
e|-0-0-0-0-2-2-2-2-|
b|-0-0-0-0-4-4-4-4-|
g|-1-1-1-1-4-4-4-4-|
d|-2-2-2-2-4-4-4-4-|
a|-2-2-2-2-2-2-2-2-|
E|-0-0-0-0-2-2-2-2-|
      E       B 

Piano 
e|-----------|
b|-----------|
g|-9--9-11-8-|
d|-9--9-9- 9-|
a|-----------|
E|-----------|

Esta de agua la sake en komo en 2min 1/2.
e-mail:pndblink182@hotmail.com
Tap to rate this tab
# A B C D E F G H I J K L M N O P Q R S T U V W X Y Z