Song name
# A B C D E F G H I J K L M N O P Q R S T U V W X Y Z

Pantera - Where You Come From tab

This is my 1st tab i hope its good. Have fun playing it
tune down to
1-C#
2-G#
3-E
4-B
5-F#
6-C#

A=artificial harmonic
t=tap harmonic (keep last note fretted and tap string over fret
 indicated)
b=full bend
r=release bend
.=palm mute


---------------------------------|--------------------------------------|
---------------------------------|--------------------------------------|
---------------------------------|--------------------------------/7----|
---------------------------------|---------------t----------------/6----|
--------0h3h5~-5p3---------------|-------0h3h5--17--5p3-----------------|
--0h3h6------------5h6p5p3p0-12^-|-0h3h6----------------5h6p5p3p0-------|

--------------------------------12----|----------------------------------|
--------------------------------10brb-|----------------------------------|
--------------------------------------|----------------------------------|
-----------------t--------------------|--------------A-------------------|
--------0h3h5---17-5p3----------------|-------0h3h5--5--5p3--------------|
--0h3h6----------------5h6p5p3p0------|-0h3h6---------------5h6p5p3p0----|

-------------|-----------------------------------------------------------|
-------------|-----------------------------------------------------------|
-------------|---A-----A-------------------------------------------------|
-------------|---5p0---5p0-------A-----A---------------------------------|
-------5-6-7-|-------7-----7p5p0-5p0---5p0-----------------------5b(7)~~-|
-5-6-7-------|-----------------------7-----7p5p0-3p0-5p0-6p5p3p0---------|

-------------------------------------------------------------------------|
-------------------------------------------------------------------------|
------------A-----A------------------------------------------------------|
------------5p0---5p0-2p0---A-----A------------------------trill---------|
----------------7---------0-5p0---5p0-----------------------5h7----------|
--------------------------------7-----7p5p0-3p0-5p0-6p5p3p0--------------|

-------------------------------------------------------------------------|
-------------------------------------------------------------------------|
------------A-----A------------------------------------------------------|
------------5p0---5p0-------A-----A--------------------------------------|
----------------7-----7p5p0-5p0---5p0-----------------------5b(7)~~~~----|
--------------------------------7-----7p5p0-3p0-5p0-6p5p3p0--------------|

--------------------------------------------------------------------------|
--------------------------------------------------------------------------|
------------A-----A-------------------------------------------------------|
------------5p0---5p0-------A-----A---------------------------------------|
----------------7-----7p5p0-5p0---5p0-------------------------------------|
--------------------------------7-----7p5p0-3p0-5p0-6p5p3h5-0-------------|

||-----------------------------------------------------------------------|
||-----------------------------------------------------------------------|
||*----------------------------------------------------------------------|
||*----------------------------------------------------------------------|
||----2-2--2-2-2--2-2-2--2-2-2--2-2-2--2-2-2--2-2-2----------------------|
||----0-0--0-0-0--0-0-0--0-0-0--0-0-0--0-0-0--0-0-0----------------------|
      . .  . . .  . . .  . . .  . . .  . . .  . . .

-------------------------------------------------------------------------|
-------------------------------------------------------------------------|
-------------------------------------------------------------------------|
-------------------------------------------------------------------------|
-----------------------------------------------------5h7-----------------|
-----0-0--0-0-0--0-0-0--0-0-0--0-0-0--0-0-0--0-0-0--------5h7--3h5-------|
     . .  . . .  . . .  . . .  . . .  . . .  . . .

-------------------------------------------------------------------------|
-------------------------------------------------------------------------|
-------------------------------------------------------------------------|
----------------------------------------------------trill----------------|
-----------------------------------------------------5h7-----------------|
-----0-0--0-0-0--0-0-0--0-0-0--0-0-0--0-0-0--0-0-0-----------------------|
     . .  . . .  . . .  . . .  . . .  . . .  . . .

-------------------------------------------------------------------------|
-------------------------------------------------------------------------|
-------------------------------------------------------------------------|
-------------------------------------------------------------------------|
-----------------------------------------------------5h7-----------------|
-----0-0--0-0-0--0-0-0--0-0-0--0-0-0--0-0-0--0-0-0--------5h7--3h5-------|
     . .  . . .  . . .  . . .  . . .  . . .  . . .

-------------------------------------------------------------------------|
-------------------------------------------------------------------------|
-----------------------------------A-----A-------------------------------|
-----------------------------------5p0---5p0-------A-----A---------------|
---------------------------------------7-----7p5p0-5p0---5p0-------------|
-----0-0--0-0-0--0-0-0--0-0-0--0-----------------------7-----7p5p0-------|
     . .  . . .  . . .  . . .  .

---------------------------------|--------------------------------------|
---------------------------------|--------------------------------------|
---------------------------------|--------------------------------/7----|
---------------------------------|--------------------------------/6----|
--------0h3h5~-5p3---------------|-------0h3h5--6---5p3-----------------|
--0h3h6------------5h6p5p3p0-----|-0h3h6--------4-------5h6p5p3p0-------|

--------------------------------------|------------------------------------|
--------------------------------------|------------------------------------|
--------------------------------------|------------------------------------|
----------------t---------------------|------------------------------------|
--------0h3h5--17--5p3-----------bar--|-------0h3h5--6--5p3----------------|
--0h3h6----------------5h6p5p3p0--/--|-0h3h6--------4------5-6-5-3-0-------|


-------------------------------------------------------------------------|
-------------------------------------------------------------------------|
------------A-----A------------------------------------------------------|
------------5p0---5p0-------A-----A--------------------------------------|
----------------7-----7p5p0-5p0---5p0-----------------------5b(7)~~~~----|
--------------------------------7-----7p5p0-3p0-5p0-6p5p3p0--------------|

-------------------------------------------------------------------------|
-------------------------------------------------------------------------|
------------A-----A------------------------------------------------------|
------------5p0---5p0-------A-----A--------------------------------------|
----------------7-----7p5p0-5p0---5p0-----------------------5b(7)~~~~----|
--------------------------------7-----7p5p0-3p0-5p0-6p5p3p0--------------|

-------------------------------------------------------------------------|
-------------------------------------------------------------------------|
------------A-----A------------------------------------------------------|
------------5p0---5p0-------A-----A------------------------trill---------|
----------------7-----7p5p0-5p0---5p0-----------------------5h7----------|
--------------------------------7-----7p5p0-3p0-5p0-6p5p3p0--------------|

-------------------------------------------------------------------------|
-------------------------------------------------------------------------|
------------A-----A------------------------------------------------------|
------------5p0---5p0-------A-----A--------------------------------------|
----------------7-----7p5p0-5p0---5p0------------------------------------|
--------------------------------7-----7p5p0-3p0-5p0-6p5p3h5-0------------|

Ending 1
---------------------------------------||
---------------------------------------||
--------------------------------------*||
--------------------------------------*||
-----------------------/7--------/10---||
---3--5--6p5p3-0--3p0-------3p0--------||

Ending 2
-------------------------------------------------------------------------|
-------------------------------------------------------------------------|
-------------------------------------------------------------------------|
-------------------------------------------------------------------------|
--------------------------------/7----------------------------------/10--|
--3-5-6p5p3-0--3-5-6p5p3-0-3p0-------3-5-6p5p3-0--3-5-6p5p3-0-3p0--------|


-------------------------------------------------------------------------|
-------------------------------------------------------------------------|
-------------------------------------------------------------------------|
-------------------------------------------------------------------------|
--------------------------------/7---------------------------------------|
--3-5-6p5p3-0--3-5-6p5p3-0-3p0-------3-5-6p5p3-0--3-5-6p5p3-0-3p0--------|


GUITAR SOLO


-------------------------------------------------------------------------|
-------------------------------------------------------------------------|
------------A-----A------------------------------------------------------|
------------5p0---5p0-------A-----A--------------------------------------|
----------------7-----7p5p0-5p0---5p0-----------------------5b(7)~~~~----|
--------------------------------7-----7p5p0-3p0-5p0-6p5p3p0--------------|

-------------------------------------------------------------------------|
-------------------------------------------------------------------------|
------------A-----A------------------------------------------------------|
------------5p0---5p0-------A-----A--------------------------------------|
----------------7-----7p5p0-5p0---5p0-----------------------5b(7)~~~~----|
--------------------------------7-----7p5p0-3p0-5p0-6p5p3p0--------------|

-------------------------------------------------------------------------|
-------------------------------------------------------------------------|
------------A-----A------------------------------------------------------|
------------5p0---5p0-------A-----A--------------------------------------|
----------------7-----7p5p0-5p0---5p0-----------------------5b(7)~~~~----|
--------------------------------7-----7p5p0-3p0-5p0-6p5p3p0--------------|

-------------------------------------------------------------------------|
-------------------------------------------------------------------------|
------------A-----A------------------------------------------------------|
------------5p0---5p0-------A-----A--------------------------------------|
----------------7-----7p5p0-5p0---5p0------------------------------------|
--------------------------------7-----7p5p0-3p0-5p0-6p5p3p0--------------|


-------------------------------------------------------------------------|
-------------------------------------------------------------------------|
--------------------------------------------------------0-----0----------|
-------------------------------------------------------------------------|
----------5-6-7-------5-6-7-------5-6-7-------5-6-7----------------------|
----5-6-7-------5-6-7-------5-6-7-------5-6-7---------3---3-1---1--------|
    . . . . . . . . . . . . . . . . . . . . . . . .

-------------------------------------------------------------------------|
-------------------------------------------------------------------------|
--------------------------------------------------------0-----0----------|
-------------------------------------------------------------------------|
----------5-6-7-------5-6-7-------5-6-7-------5-6-7----------------------|
----5-6-7-------5-6-7-------5-6-7-------5-6-7---------6---6-4---4--------|
    . . . . . . . . . . . . . . . . . . . . . . . .

-------------------------------------------------------------------------|
-------------------------------------------------------------------------|
--------------------------------------------------------0-----0----------|
-------------------------------------------------------------------------|
----------5-6-7-------5-6-7-------5-6-7-------5-6-7----------------------|
----5-6-7-------5-6-7-------5-6-7-------5-6-7---------3---3-1---1--------|
    . . . . . . . . . . . . . . . . . . . . . . . .

-------------------------------------------------------------------------|
-------------------------------------------------------------------------|
--------------------------------------------------------0------0---------|
-------------------------------------------------------------------------|
----------5-6-7-------5-6-7-------5-6-7-------5-6-7----------------------|
----5-6-7-------5-6-7-------5-6-7-------5-6-7---------8---8-10---10------|
    . . . . . . . . . . . . . . . . . . . . . . . .

-------------------------------------------------------------------------|
-------------------------------------------------------------------------|
-------------------------------------------------------------------------|
-------------------------------------------------------------------------|
----------5-6-7-------5-6-7-------5-6-7-------5-6-7---5--5--3--3---------|
----5-6-7-------5-6-7-------5-6-7-------5-6-7---------3--3--1--1---------|

-------------------------------------------------------------------------|
-------------------------------------------------------------------------|
-------------------------------------------------------------------------|
-------------------------------------------------------------------------|
----------5-6-7-------5-6-7-------5-6-7-------5-6-7---8--8--6--6---------|
----5-6-7-------5-6-7-------5-6-7-------5-6-7---------6--6--4--4---------|

-------------------------------------------------------------------------|
-------------------------------------------------------------------------|
-------------------------------------------------------------------------|
-------------------------------------------------------------------------|
----------5-6-7-------5-6-7-------5-6-7-------5-6-7---5--5--3--3---------|
----5-6-7-------5-6-7-------5-6-7-------5-6-7---------3--3--1--1---------|

-------------------------------------------------------------------------|
-------------------------------------------------------------------------|
-------------------------------------------------------------------------|
-------------------------------------------------------------------------|
----------5-6-7-------5-6-7-------5-6-7-------5-6-7--10--10--12--12------|
----5-6-7-------5-6-7-------5-6-7-------5-6-7---------8---8--10--10------|

||------------------------------------------------------------------------|
||------------------------------------------------------------------------|
||*-----------------------------------------------------------------------|
||*-------5----------5----------5----------5------------------------------|
||--------5----------5----------5----------5------5--5--3--3--------------|
||--5-6-7-------5-6-7-------5-6-7-------5-6-7---------3--3--1--1----------|
    . . .       . . .       . . .       . . .

--------------------------------------------------------------------------|
--------------------------------------------------------------------------|
--------------------------------------------------------------------------|
----------12---------12----------12--------12-----------------------------|
----------12---------12----------12--------12-----8--8--6--6--------------|
----0-0-0-------0-0-0-------0-0-0-------0-0-0---------6--6--4--4----------|
    . . .       . . .       . . .       . . .

--------------------------------------------------------------------------|
--------------------------------------------------------------------------|
--------------------------------------------------------------------------|
----------5----------5----------5----------5------------------------------|
----------5----------5----------5----------5------5--5--3--3--------------|
----5-6-7-------5-6-7-------5-6-7-------5-6-7---------3--3--1--1----------|
    . . .       . . .       . . .       . . .
                                                         Repeat and Fade
--------------------------------------------------------------------------|
--------------------------------------------------------------------------|
----------------------------------------------------------------------*---|
----------12---------12---------12---------12---------------------*-------|
----------12---------12---------12---------12----10-10--12--12------------|
----0-0-0-------0-0-0-------0-0-0-------0-0-0---------8--8--10--10--------|
Tap to rate this tab
# A B C D E F G H I J K L M N O P Q R S T U V W X Y Z